  0
SECTION
  2
HEADER
  9
$ACADVER
  1
AC1006
  9
$INSBASE
 10
0.0
 20
0.0
 30
0.0
  9
$EXTMIN
 10
30.0
 20
62.0
  9
$EXTMAX
 10
1705.0
 20
1110.0
  9
$LIMMIN
 10
0.0
 20
0.0
  9
$LIMMAX
 10
1680.0
 20
1188.0
  9
$ORTHOMODE
 70
     0
  9
$REGENMODE
 70
     1
  9
$FILLMODE
 70
     1
  9
$QTEXTMODE
 70
     0
  9
$MIRRTEXT
 70
     1
  9
$DRAGMODE
 70
     2
  9
$LTSCALE
 40
1.0
  9
$OSMODE
 70
     0
  9
$ATTMODE
 70
     1
  9
$TEXTSIZE
 40
4.5
  9
$TRACEWID
 40
0.05
  9
$TEXTSTYLE
  7
STANDARD
  9
$CLAYER
  8
L-ZISSEN
  9
$CELTYPE
  6
BYLAYER
  9
$CECOLOR
 62
   256
  9
$DIMSCALE
 40
1.0
  9
$DIMASZ
 40
2.0
  9
$DIMEXO
 40
1.0
  9
$DIMDLI
 40
0.38
  9
$DIMRND
 40
0.0
  9
$DIMDLE
 40
1.0
  9
$DIMEXE
 40
1.0
  9
$DIMTP
 40
0.0
  9
$DIMTM
 40
0.0
  9
$DIMTXT
 40
4.5
  9
$DIMCEN
 40
0.09
  9
$DIMTSZ
 40
0.0
  9
$DIMTOL
 70
     0
  9
$DIMLIM
 70
     0
  9
$DIMTIH
 70
     0
  9
$DIMTOH
 70
     0
  9
$DIMSE1
 70
     0
  9
$DIMSE2
 70
     0
  9
$DIMTAD
 70
     1
  9
$DIMZIN
 70
     0
  9
$DIMBLK
  1

  9
$DIMASO
 70
     0
  9
$DIMSHO
 70
     0
  9
$DIMPOST
  1

  9
$DIMAPOST
  1

  9
$DIMALT
 70
     0
  9
$DIMALTD
 70
     2
  9
$DIMALTF
 40
25.4
  9
$DIMLFAC
 40
1.0
  9
$DIMTOFL
 70
     1
  9
$DIMTVP
 40
0.0
  9
$DIMTIX
 70
     0
  9
$DIMSOXD
 70
     0
  9
$DIMSAH
 70
     0
  9
$DIMBLK1
  1

  9
$DIMBLK2
  1

  9
$LUNITS
 70
     2
  9
$LUPREC
 70
     4
  9
$AXISMODE
 70
     0
  9
$AXISUNIT
 10
0.0
 20
0.0
  9
$SKETCHINC
 40
0.1
  9
$FILLETRAD
 40
0.0
  9
$AUNITS
 70
     0
  9
$AUPREC
 70
     0
  9
$MENU
  1
acad
  9
$ELEVATION
 40
0.0
  9
$THICKNESS
 40
0.0
  9
$LIMCHECK
 70
     0
  9
$BLIPMODE
 70
     1
  9
$CHAMFERA
 40
0.0
  9
$CHAMFERB
 40
0.0
  9
$SKPOLY
 70
     0
  9
$TDCREATE
 40
2449251.4588998845
  9
$TDUPDATE
 40
2449251.4588998845
  9
$TDINDWG
 40
0.0000000000
  9
$TDUSRTIMER
 40
0.0000000000
  9
$USRTIMER
 70
     1
  9
$ANGBASE
 50
0.0
  9
$ANGDIR
 70
     0
  9
$PDMODE
 70
     0
  9
$PDSIZE
 40
0.0
  9
$PLINEWID
 40
0.0
  9
$COORDS
 70
     2
  9
$SPLFRAME
 70
     0
  9
$SPLINETYPE
 70
     6
  9
$SPLINESEGS
 70
     8
  9
$ATTDIA
 70
     0
  9
$ATTREQ
 70
     1
  9
$HANDLING
 70
     0
  9
$HANDSEED
  5
0
  9
$SURFTAB1
 70
     6
  9
$SURFTAB2
 70
     6
  9
$SURFTYPE
 70
     6
  9
$SURFU
 70
     6
  9
$SURFV
 70
     6
  9
$FLATLAND
 70
     0
  9
$UCSNAME
  2

  9
$UCSORG
 10
0.0
 20
0.0
 30
0.0
  9
$UCSXDIR
 10
1.0
 20
0.0
 30
0.0
  9
$UCSYDIR
 10
0.0
 20
1.0
 30
0.0
  9
$USERI1
 70
     0
  9
$USERI2
 70
     0
  9
$USERI3
 70
     0
  9
$USERI4
 70
     0
  9
$USERI5
 70
     0
  9
$USERR1
 40
0.0
  9
$USERR2
 40
0.0
  9
$USERR3
 40
0.0
  9
$USERR4
 40
0.0
  9
$USERR5
 40
0.0
  9
$WORLDVIEW
 70
     1
  0
ENDSEC
  0
SECTION
  2
TABLES
  0
TABLE
  2
VPORT
 70
     2
  0
VPORT
  2
*ACTIVE
 70
     0
 10
0.0
 20
0.0
 11
1.0
 21
1.0
 12
952.911956
 22
615.298075
 13
0.0
 23
0.0
 14
5.0
 24
5.0
 15
0.0
 25
0.0
 16
0.0
 26
0.0
 36
1.0
 17
0.0
 27
0.0
 37
0.0
 40
1230.59615
 41
1.5487
 42
50.0
 43
0.0
 44
0.0
 50
0.0
 51
0.0
 71
     0
 72
   100
 73
     1
 74
     0
 75
     0
 76
     0
 77
     0
 78
     0
  0
ENDTAB
  0
TABLE
  2
LTYPE
 70
     2
  0
LTYPE
  2
CONTINUOUS
 70
    64
  3
Solid line
 72
    65
 73
     0
 40
0.0
  0
LTYPE
  2
CENTER
 70
    64
  3
____ _ ____ _ ____ _ ____ _ 
 72
    65
 73
     4
 40
60.0
 49
45.0
 49
-5.0
 49
5.0
 49
-5.0
  0
ENDTAB
  0
TABLE
  2
LAYER
 70
     3
  0
LAYER
  2
0
 70
     0
 62
     7
  6
CONTINUOUS
  0
LAYER
  2
L-ZISSEN
 70
    64
 62
     7
  6
CONTINUOUS
  0
LAYER
  2
L-TYUSIN
 70
    64
 62
     1
  6
CENTER
  0
ENDTAB
  0
TABLE
  2
STYLE
 70
     1
  0
STYLE
  2
STANDARD
 70
    64
 40
0.0
 41
1.0
 50
0.0
 71
     0
 42
4.5
  3
TXT
  4

  0
ENDTAB
  0
TABLE
  2
VIEW
 70
     0
  0
ENDTAB
  0
TABLE
  2
UCS
 70
     0
  0
ENDTAB
  0
TABLE
  2
DWGMGR
 70
     0
  0
ENDTAB
  0
ENDSEC
  0
SECTION
  2
BLOCKS
  0
ENDSEC
  0
SECTION
  2
ENTITIES
  0
LINE
  8
L-TYUSIN
  6
CENTER
 62
     1
 10
130.0
 20
350.5
 30
0.0
 11
130.0
 21
66.682303
 31
0.0
  0
LINE
  8
L-ZISSEN
  6
CONTINUOUS
 62
     7
 10
175.0
 20
79.0
 30
0.0
 11
175.0
 21
284.0
 31
0.0
  0
LINE
  8
L-ZISSEN
  6
CONTINUOUS
 62
     7
 10
85.0
 20
284.0
 30
0.0
 11
85.0
 21
79.0
 31
0.0
  0
LINE
  8
L-ZISSEN
  6
CONTINUOUS
 62
     7
 10
85.0
 20
79.0
 30
0.0
 11
175.0
 21
79.0
 31
0.0
  0
LINE
  8
L-ZISSEN
  6
CONTINUOUS
 62
     7
 10
175.0
 20
264.0
 30
0.0
 11
85.0
 21
264.0
 31
0.0
  0
LINE
  8
L-ZISSEN
  6
CONTINUOUS
 62
     7
 10
175.0
 20
251.0
 30
0.0
 11
85.0
 21
251.0
 31
0.0
  0
LINE
  8
L-ZISSEN
  6
CONTINUOUS
 62
     7
 10
85.0
 20
161.0
 30
0.0
 11
175.0
 21
161.0
 31
0.0
  0
CIRCLE
  8
L-ZISSEN
  6
CONTINUOUS
 62
     7
 10
130.0
 20
206.0
 30
0.0
 40
40.0
  0
LINE
  8
L-TYUSIN
  6
CENTER
 62
     1
 10
205.0
 20
150.0
 30
0.0
 11
55.0
 21
150.0
 31
0.0
  0
CIRCLE
  8
L-ZISSEN
  6
CONTINUOUS
 62
     7
 10
165.5
 20
241.5
 30
0.0
 40
8.0
  0
LINE
  8
L-ZISSEN
  6
CONTINUOUS
 62
     7
 10
75.0
 20
106.5
 30
0.0
 11
62.5
 21
106.5
 31
0.0
  0
LINE
  8
L-ZISSEN
  6
CONTINUOUS
 62
     7
 10
62.5
 20
106.5
 30
0.0
 11
62.5
 21
122.5
 31
0.0
  0
LINE
  8
L-ZISSEN
  6
CONTINUOUS
 62
     7
 10
62.5
 20
122.5
 30
0.0
 11
75.0
 21
122.5
 31
0.0
  0
LINE
  8
L-ZISSEN
  6
CONTINUOUS
 62
     7
 10
85.0
 20
105.0
 30
0.0
 11
75.0
 21
105.0
 31
0.0
  0
CIRCLE
  8
L-ZISSEN
  6
CONTINUOUS
 62
     7
 10
94.5
 20
241.5
 30
0.0
 40
8.0
  0
CIRCLE
  8
L-ZISSEN
  6
CONTINUOUS
 62
     7
 10
94.5
 20
170.5
 30
0.0
 40
8.0
  0
CIRCLE
  8
L-ZISSEN
  6
CONTINUOUS
 62
     7
 10
165.5
 20
170.5
 30
0.0
 40
8.0
  0
LINE
  8
L-ZISSEN
  6
CONTINUOUS
 62
     7
 10
305.0
 20
251.0
 30
0.0
 11
290.0
 21
251.0
 31
0.0
  0
LINE
  8
L-ZISSEN
  6
CONTINUOUS
 62
     7
 10
305.0
 20
161.0
 30
0.0
 11
290.0
 21
161.0
 31
0.0
  0
CIRCLE
  8
L-ZISSEN
  6
CONTINUOUS
 62
     7
 10
350.0
 20
150.0
 30
0.0
 40
40.0
  0
LINE
  8
L-ZISSEN
  6
CONTINUOUS
 62
     7
 10
305.0
 20
105.0
 30
0.0
 11
395.0
 21
105.0
 31
0.0
  0
LINE
  8
L-ZISSEN
  6
CONTINUOUS
 62
     7
 10
395.0
 20
195.0
 30
0.0
 11
305.0
 21
195.0
 31
0.0
  0
LINE
  8
L-TYUSIN
  6
CENTER
 62
     1
 10
305.0
 20
206.0
 30
0.0
 11
267.0
 21
206.0
 31
0.0
  0
LINE
  8
L-ZISSEN
  6
CONTINUOUS
 62
     7
 10
395.0
 20
264.0
 30
0.0
 11
305.0
 21
264.0
 31
0.0
  0
LINE
  8
L-ZISSEN
  6
CONTINUOUS
 62
     7
 10
305.0
 20
79.0
 30
0.0
 11
344.0
 21
79.0
 31
0.0
  0
LINE
  8
L-ZISSEN
  6
CONTINUOUS
 62
     7
 10
305.0
 20
274.0
 30
0.0
 11
305.0
 21
251.0
 31
0.0
  0
LINE
  8
L-ZISSEN
  6
CONTINUOUS
 62
     7
 10
400.0
 20
251.0
 30
0.0
 11
400.0
 21
161.0
 31
0.0
  0
LINE
  8
L-ZISSEN
  6
CONTINUOUS
 62
     7
 10
400.0
 20
251.0
 30
0.0
 11
395.0
 21
251.0
 31
0.0
  0
LINE
  8
L-ZISSEN
  6
CONTINUOUS
 62
     7
 10
300.0
 20
251.0
 30
0.0
 11
300.0
 21
161.0
 31
0.0
  0
LINE
  8
L-ZISSEN
  6
CONTINUOUS
 62
     7
 10
395.0
 20
251.0
 30
0.0
 11
395.0
 21
274.0
 31
0.0
  0
LINE
  8
L-ZISSEN
  6
CONTINUOUS
 62
     7
 10
305.0
 20
195.0
 30
0.0
 11
305.0
 21
74.5
 31
0.0
  0
LINE
  8
L-ZISSEN
  6
CONTINUOUS
 62
     7
 10
356.0
 20
79.0
 30
0.0
 11
395.0
 21
79.0
 31
0.0
  0
LINE
  8
L-ZISSEN
  6
CONTINUOUS
 62
     7
 10
175.0
 20
79.0
 30
0.0
 11
175.0
 21
74.5
 31
0.0
  0
LINE
  8
L-ZISSEN
  6
CONTINUOUS
 62
     7
 10
175.0
 20
74.5
 30
0.0
 11
85.0
 21
74.5
 31
0.0
  0
LINE
  8
L-ZISSEN
  6
CONTINUOUS
 62
     7
 10
85.0
 20
74.5
 30
0.0
 11
85.0
 21
79.0
 31
0.0
  0
LINE
  8
L-ZISSEN
  6
CONTINUOUS
 62
     7
 10
157.5
 20
74.5
 30
0.0
 11
157.5
 21
62.0
 31
0.0
  0
LINE
  8
L-ZISSEN
  6
CONTINUOUS
 62
     7
 10
157.5
 20
62.0
 30
0.0
 11
173.5
 21
62.0
 31
0.0
  0
LINE
  8
L-ZISSEN
  6
CONTINUOUS
 62
     7
 10
173.5
 20
62.0
 30
0.0
 11
173.5
 21
74.5
 31
0.0
  0
LINE
  8
L-ZISSEN
  6
CONTINUOUS
 62
     7
 10
86.5
 20
62.0
 30
0.0
 11
86.5
 21
74.5
 31
0.0
  0
LINE
  8
L-ZISSEN
  6
CONTINUOUS
 62
     7
 10
102.5
 20
62.0
 30
0.0
 11
86.5
 21
62.0
 31
0.0
  0
LINE
  8
L-ZISSEN
  6
CONTINUOUS
 62
     7
 10
102.5
 20
74.5
 30
0.0
 11
102.5
 21
62.0
 31
0.0
  0
LINE
  8
L-ZISSEN
  6
CONTINUOUS
 62
     7
 10
395.0
 20
74.5
 30
0.0
 11
305.0
 21
74.5
 31
0.0
  0
LINE
  8
L-ZISSEN
  6
CONTINUOUS
 62
     7
 10
305.0
 20
79.0
 30
0.0
 11
395.0
 21
79.0
 31
0.0
  0
LINE
  8
L-ZISSEN
  6
CONTINUOUS
 62
     7
 10
102.5
 20
274.0
 30
0.0
 11
102.5
 21
286.5
 31
0.0
  0
LINE
  8
L-ZISSEN
  6
CONTINUOUS
 62
     7
 10
102.5
 20
286.5
 30
0.0
 11
86.5
 21
286.5
 31
0.0
  0
LINE
  8
L-ZISSEN
  6
CONTINUOUS
 62
     7
 10
86.5
 20
286.5
 30
0.0
 11
86.5
 21
274.0
 31
0.0
  0
LINE
  8
L-ZISSEN
  6
CONTINUOUS
 62
     7
 10
102.5
 20
284.0
 30
0.0
 11
157.5
 21
284.0
 31
0.0
  0
LINE
  8
L-TYUSIN
  6
CENTER
 62
     1
 10
180.0
 20
275.0
 30
0.0
 11
170.0
 21
275.0
 31
0.0
  0
LINE
  8
L-TYUSIN
  6
CENTER
 62
     1
 10
340.0
 20
275.0
 30
0.0
 11
360.0
 21
275.0
 31
0.0
  0
LINE
  8
L-ZISSEN
  6
CONTINUOUS
 62
     7
 10
62.5
 20
110.0
 30
0.0
 11
60.0
 21
110.0
 31
0.0
  0
LINE
  8
L-ZISSEN
  6
CONTINUOUS
 62
     7
 10
35.0
 20
261.5
 30
0.0
 11
85.0
 21
261.5
 31
0.0
  0
LINE
  8
L-ZISSEN
  6
CONTINUOUS
 62
     7
 10
225.0
 20
261.5
 30
0.0
 11
225.0
 21
81.5
 31
0.0
  0
LINE
  8
L-ZISSEN
  6
CONTINUOUS
 62
     7
 10
225.0
 20
81.5
 30
0.0
 11
175.0
 21
81.5
 31
0.0
  0
LINE
  8
L-ZISSEN
  6
CONTINUOUS
 62
     7
 10
183.0
 20
261.5
 30
0.0
 11
183.0
 21
195.0
 31
0.0
  0
LINE
  8
L-ZISSEN
  6
CONTINUOUS
 62
     7
 10
77.0
 20
261.5
 30
0.0
 11
77.0
 21
195.0
 31
0.0
  0
LINE
  8
L-ZISSEN
  6
CONTINUOUS
 62
     7
 10
35.0
 20
261.5
 30
0.0
 11
35.0
 21
81.5
 31
0.0
  0
ARC
  8
L-ZISSEN
  6
CONTINUOUS
 62
     7
 10
200.0
 20
236.5
 30
0.0
 40
5.6
 50
90.0
 51
270.0
  0
ARC
  8
L-ZISSEN
  6
CONTINUOUS
 62
     7
 10
210.0
 20
236.5
 30
0.0
 40
5.6
 50
270.0
 51
90.0
  0
LINE
  8
L-ZISSEN
  6
CONTINUOUS
 62
     7
 10
200.0
 20
242.1
 30
0.0
 11
210.0
 21
242.1
 31
0.0
  0
LINE
  8
L-ZISSEN
  6
CONTINUOUS
 62
     7
 10
200.0
 20
230.9
 30
0.0
 11
210.0
 21
230.9
 31
0.0
  0
LINE
  8
L-ZISSEN
  6
CONTINUOUS
 62
     7
 10
200.0
 20
90.9
 30
0.0
 11
210.0
 21
90.9
 31
0.0
  0
LINE
  8
L-ZISSEN
  6
CONTINUOUS
 62
     7
 10
200.0
 20
102.1
 30
0.0
 11
210.0
 21
102.1
 31
0.0
  0
ARC
  8
L-ZISSEN
  6
CONTINUOUS
 62
     7
 10
210.0
 20
96.5
 30
0.0
 40
5.6
 50
270.0
 51
90.0
  0
ARC
  8
L-ZISSEN
  6
CONTINUOUS
 62
     7
 10
60.0
 20
96.5
 30
0.0
 40
5.6
 50
270.0
 51
90.0
  0
ARC
  8
L-ZISSEN
  6
CONTINUOUS
 62
     7
 10
50.0
 20
96.5
 30
0.0
 40
5.6
 50
90.0
 51
270.0
  0
LINE
  8
L-ZISSEN
  6
CONTINUOUS
 62
     7
 10
60.0
 20
102.1
 30
0.0
 11
50.0
 21
102.1
 31
0.0
  0
LINE
  8
L-ZISSEN
  6
CONTINUOUS
 62
     7
 10
60.0
 20
90.9
 30
0.0
 11
50.0
 21
90.9
 31
0.0
  0
LINE
  8
L-ZISSEN
  6
CONTINUOUS
 62
     7
 10
60.0
 20
230.9
 30
0.0
 11
50.0
 21
230.9
 31
0.0
  0
LINE
  8
L-ZISSEN
  6
CONTINUOUS
 62
     7
 10
60.0
 20
242.1
 30
0.0
 11
50.0
 21
242.1
 31
0.0
  0
ARC
  8
L-ZISSEN
  6
CONTINUOUS
 62
     7
 10
50.0
 20
236.5
 30
0.0
 40
5.6
 50
90.0
 51
270.0
  0
ARC
  8
L-ZISSEN
  6
CONTINUOUS
 62
     7
 10
60.0
 20
236.5
 30
0.0
 40
5.6
 50
270.0
 51
90.0
  0
LINE
  8
L-TYUSIN
  6
CENTER
 62
     1
 10
40.0
 20
96.5
 30
0.0
 11
70.0
 21
96.5
 31
0.0
  0
LINE
  8
L-ZISSEN
  6
CONTINUOUS
 62
     7
 10
400.0
 20
81.5
 30
0.0
 11
421.0
 21
81.5
 31
0.0
  0
LINE
  8
L-ZISSEN
  6
CONTINUOUS
 62
     7
 10
421.0
 20
81.5
 30
0.0
 11
421.0
 21
261.5
 31
0.0
  0
LINE
  8
L-ZISSEN
  6
CONTINUOUS
 62
     7
 10
421.0
 20
261.5
 30
0.0
 11
400.0
 21
261.5
 31
0.0
  0
LINE
  8
L-ZISSEN
  6
CONTINUOUS
 62
     7
 10
400.0
 20
261.5
 30
0.0
 11
400.0
 21
81.5
 31
0.0
  0
LINE
  8
L-ZISSEN
  6
CONTINUOUS
 62
     7
 10
416.5
 20
81.5
 30
0.0
 11
416.5
 21
261.5
 31
0.0
  0
LINE
  8
L-ZISSEN
  6
CONTINUOUS
 62
     7
 10
175.0
 20
261.5
 30
0.0
 11
225.0
 21
261.5
 31
0.0
  0
LINE
  8
L-ZISSEN
  6
CONTINUOUS
 62
     7
 10
85.0
 20
81.5
 30
0.0
 11
35.0
 21
81.5
 31
0.0
  0
LINE
  8
L-ZISSEN
  6
CONTINUOUS
 62
     7
 10
183.0
 20
105.0
 30
0.0
 11
183.0
 21
81.5
 31
0.0
  0
LINE
  8
L-TYUSIN
  6
CENTER
 62
     1
 10
180.0
 20
206.0
 30
0.0
 11
80.0
 21
206.0
 31
0.0
  0
ARC
  8
L-ZISSEN
  6
CONTINUOUS
 62
     7
 10
200.0
 20
96.5
 30
0.0
 40
5.6
 50
90.0
 51
270.0
  0
LINE
  8
L-ZISSEN
  6
CONTINUOUS
 62
     7
 10
400.0
 20
161.0
 30
0.0
 11
395.0
 21
161.0
 31
0.0
  0
LINE
  8
L-TYUSIN
  6
CENTER
 62
     1
 10
55.0
 20
106.5
 30
0.0
 11
55.0
 21
86.5
 31
0.0
  0
LINE
  8
L-TYUSIN
  6
CENTER
 62
     1
 10
350.0
 20
350.5
 30
0.0
 11
350.0
 21
69.5
 31
0.0
  0
LINE
  8
L-ZISSEN
  6
CONTINUOUS
 62
     7
 10
175.0
 20
274.0
 30
0.0
 11
85.0
 21
274.0
 31
0.0
  0
LINE
  8
L-ZISSEN
  6
CONTINUOUS
 62
     7
 10
324.0
 20
274.0
 30
0.0
 11
324.0
 21
345.5
 31
0.0
  0
LINE
  8
L-ZISSEN
  6
CONTINUOUS
 62
     7
 10
324.0
 20
274.0
 30
0.0
 11
305.0
 21
274.0
 31
0.0
  0
LINE
  8
L-ZISSEN
 10
376.0
 20
284.0
 30
0.0
 11
324.0
 21
284.0
 31
0.0
  0
LINE
  8
L-ZISSEN
  6
CONTINUOUS
 62
     7
 10
376.0
 20
274.0
 30
0.0
 11
376.0
 21
345.5
 31
0.0
  0
LINE
  8
L-ZISSEN
  6
CONTINUOUS
 62
     7
 10
395.0
 20
274.0
 30
0.0
 11
376.0
 21
274.0
 31
0.0
  0
LINE
  8
L-ZISSEN
  6
CONTINUOUS
 62
     7
 10
60.0
 20
110.0
 30
0.0
 11
60.0
 21
190.0
 31
0.0
  0
LINE
  8
L-ZISSEN
  6
CONTINUOUS
 62
     7
 10
77.0
 20
105.0
 30
0.0
 11
77.0
 21
81.5
 31
0.0
  0
LINE
  8
L-ZISSEN
  6
CONTINUOUS
 62
     7
 10
75.0
 20
105.0
 30
0.0
 11
75.0
 21
195.0
 31
0.0
  0
LINE
  8
L-ZISSEN
  6
CONTINUOUS
 62
     7
 10
85.0
 20
195.0
 30
0.0
 11
75.0
 21
195.0
 31
0.0
  0
LINE
  8
L-ZISSEN
  6
CONTINUOUS
 62
     7
 10
62.5
 20
177.5
 30
0.0
 11
75.0
 21
177.5
 31
0.0
  0
LINE
  8
L-ZISSEN
  6
CONTINUOUS
 62
     7
 10
62.5
 20
193.5
 30
0.0
 11
62.5
 21
177.5
 31
0.0
  0
LINE
  8
L-ZISSEN
  6
CONTINUOUS
 62
     7
 10
75.0
 20
193.5
 30
0.0
 11
62.5
 21
193.5
 31
0.0
  0
LINE
  8
L-ZISSEN
  6
CONTINUOUS
 62
     7
 10
62.5
 20
190.0
 30
0.0
 11
60.0
 21
190.0
 31
0.0
  0
LINE
  8
L-ZISSEN
  6
CONTINUOUS
 62
     7
 10
197.5
 20
190.0
 30
0.0
 11
200.0
 21
190.0
 31
0.0
  0
LINE
  8
L-ZISSEN
  6
CONTINUOUS
 62
     7
 10
185.0
 20
193.5
 30
0.0
 11
197.5
 21
193.5
 31
0.0
  0
LINE
  8
L-ZISSEN
  6
CONTINUOUS
 62
     7
 10
197.5
 20
193.5
 30
0.0
 11
197.5
 21
177.5
 31
0.0
  0
LINE
  8
L-ZISSEN
  6
CONTINUOUS
 62
     7
 10
197.5
 20
177.5
 30
0.0
 11
185.0
 21
177.5
 31
0.0
  0
LINE
  8
L-ZISSEN
  6
CONTINUOUS
 62
     7
 10
175.0
 20
195.0
 30
0.0
 11
185.0
 21
195.0
 31
0.0
  0
LINE
  8
L-ZISSEN
  6
CONTINUOUS
 62
     7
 10
185.0
 20
105.0
 30
0.0
 11
185.0
 21
195.0
 31
0.0
  0
LINE
  8
L-ZISSEN
  6
CONTINUOUS
 62
     7
 10
200.0
 20
110.0
 30
0.0
 11
200.0
 21
190.0
 31
0.0
  0
LINE
  8
L-ZISSEN
  6
CONTINUOUS
 62
     7
 10
197.5
 20
110.0
 30
0.0
 11
200.0
 21
110.0
 31
0.0
  0
LINE
  8
L-ZISSEN
  6
CONTINUOUS
 62
     7
 10
175.0
 20
105.0
 30
0.0
 11
185.0
 21
105.0
 31
0.0
  0
LINE
  8
L-ZISSEN
  6
CONTINUOUS
 62
     7
 10
197.5
 20
122.5
 30
0.0
 11
185.0
 21
122.5
 31
0.0
  0
LINE
  8
L-ZISSEN
  6
CONTINUOUS
 62
     7
 10
197.5
 20
106.5
 30
0.0
 11
197.5
 21
122.5
 31
0.0
  0
LINE
  8
L-ZISSEN
  6
CONTINUOUS
 62
     7
 10
185.0
 20
106.5
 30
0.0
 11
197.5
 21
106.5
 31
0.0
  0
LINE
  8
L-TYUSIN
  6
CENTER
 62
     1
 10
220.0
 20
96.5
 30
0.0
 11
190.0
 21
96.5
 31
0.0
  0
LINE
  8
L-TYUSIN
  6
CENTER
 62
     1
 10
205.0
 20
106.5
 30
0.0
 11
205.0
 21
86.5
 31
0.0
  0
LINE
  8
L-TYUSIN
  6
CENTER
 62
     1
 10
40.0
 20
236.5
 30
0.0
 11
70.0
 21
236.5
 31
0.0
  0
LINE
  8
L-TYUSIN
  6
CENTER
 62
     1
 10
55.0
 20
246.5
 30
0.0
 11
55.0
 21
226.5
 31
0.0
  0
LINE
  8
L-TYUSIN
  6
CENTER
 62
     1
 10
220.0
 20
236.5
 30
0.0
 11
190.0
 21
236.5
 31
0.0
  0
LINE
  8
L-TYUSIN
  6
CENTER
 62
     1
 10
205.0
 20
246.5
 30
0.0
 11
205.0
 21
226.5
 31
0.0
  0
LINE
  8
L-ZISSEN
 10
107.690129
 20
284.0
 30
0.0
 11
102.5
 21
284.0
 31
0.0
  0
LINE
  8
L-ZISSEN
 10
86.5
 20
284.0
 30
0.0
 11
85.0
 21
284.0
 31
0.0
  0
LINE
  8
L-ZISSEN
  6
CONTINUOUS
 62
     7
 10
173.5
 20
284.0
 30
0.0
 11
175.0
 21
284.0
 31
0.0
  0
LINE
  8
L-ZISSEN
  6
CONTINUOUS
 62
     7
 10
173.5
 20
286.5
 30
0.0
 11
157.5
 21
286.5
 31
0.0
  0
LINE
  8
L-ZISSEN
  6
CONTINUOUS
 62
     7
 10
157.5
 20
286.5
 30
0.0
 11
157.5
 21
274.0
 31
0.0
  0
LINE
  8
L-ZISSEN
  6
CONTINUOUS
 62
     7
 10
173.5
 20
274.0
 30
0.0
 11
173.5
 21
286.5
 31
0.0
  0
CIRCLE
  8
L-ZISSEN
 10
350.0
 20
275.0
 30
0.0
 40
4.283
  0
LINE
  8
L-ZISSEN
  6
CONTINUOUS
 62
     7
 10
306.5
 20
286.5
 30
0.0
 11
306.5
 21
274.0
 31
0.0
  0
LINE
  8
L-ZISSEN
  6
CONTINUOUS
 62
     7
 10
322.5
 20
286.5
 30
0.0
 11
306.5
 21
286.5
 31
0.0
  0
LINE
  8
L-ZISSEN
  6
CONTINUOUS
 62
     7
 10
322.5
 20
274.0
 30
0.0
 11
322.5
 21
286.5
 31
0.0
  0
LINE
  8
L-ZISSEN
  6
CONTINUOUS
 62
     7
 10
393.5
 20
274.0
 30
0.0
 11
393.5
 21
286.5
 31
0.0
  0
LINE
  8
L-ZISSEN
  6
CONTINUOUS
 62
     7
 10
393.5
 20
286.5
 30
0.0
 11
377.5
 21
286.5
 31
0.0
  0
LINE
  8
L-ZISSEN
  6
CONTINUOUS
 62
     7
 10
377.5
 20
286.5
 30
0.0
 11
377.5
 21
274.0
 31
0.0
  0
LINE
  8
L-ZISSEN
  6
CONTINUOUS
 62
     7
 10
395.0
 20
195.0
 30
0.0
 11
395.0
 21
74.5
 31
0.0
  0
LINE
  8
L-ZISSEN
  6
CONTINUOUS
 62
     7
 10
277.5
 20
246.0
 30
0.0
 11
272.0
 21
246.0
 31
0.0
  0
LINE
  8
L-ZISSEN
  6
CONTINUOUS
 62
     7
 10
290.0
 20
249.5
 30
0.0
 11
277.5
 21
249.5
 31
0.0
  0
LINE
  8
L-ZISSEN
  6
CONTINUOUS
 62
     7
 10
277.5
 20
249.5
 30
0.0
 11
277.5
 21
233.5
 31
0.0
  0
LINE
  8
L-ZISSEN
  6
CONTINUOUS
 62
     7
 10
277.5
 20
233.5
 30
0.0
 11
290.0
 21
233.5
 31
0.0
  0
LINE
  8
L-ZISSEN
  6
CONTINUOUS
 62
     7
 10
290.0
 20
161.0
 30
0.0
 11
290.0
 21
251.0
 31
0.0
  0
LINE
  8
L-ZISSEN
  6
CONTINUOUS
 62
     7
 10
272.0
 20
166.0
 30
0.0
 11
272.0
 21
246.0
 31
0.0
  0
LINE
  8
L-ZISSEN
  6
CONTINUOUS
 62
     7
 10
277.5
 20
166.0
 30
0.0
 11
272.0
 21
166.0
 31
0.0
  0
LINE
  8
L-ZISSEN
  6
CONTINUOUS
 62
     7
 10
277.5
 20
178.5
 30
0.0
 11
290.0
 21
178.5
 31
0.0
  0
LINE
  8
L-ZISSEN
  6
CONTINUOUS
 62
     7
 10
277.5
 20
162.5
 30
0.0
 11
277.5
 21
178.5
 31
0.0
  0
LINE
  8
L-ZISSEN
  6
CONTINUOUS
 62
     7
 10
290.0
 20
162.5
 30
0.0
 11
277.5
 21
162.5
 31
0.0
  0
CIRCLE
  8
L-ZISSEN
 10
130.0
 20
206.0
 30
0.0
 40
28.328
  0
CIRCLE
  8
L-ZISSEN
 10
350.0
 20
150.0
 30
0.0
 40
22.4225
  0
LINE
  8
L-ZISSEN
  6
CONTINUOUS
 62
     7
 10
322.5
 20
74.5
 30
0.0
 11
322.5
 21
62.0
 31
0.0
  0
LINE
  8
L-ZISSEN
  6
CONTINUOUS
 62
     7
 10
322.5
 20
62.0
 30
0.0
 11
306.5
 21
62.0
 31
0.0
  0
LINE
  8
L-ZISSEN
  6
CONTINUOUS
 62
     7
 10
306.5
 20
62.0
 30
0.0
 11
306.5
 21
74.5
 31
0.0
  0
LINE
  8
L-ZISSEN
  6
CONTINUOUS
 62
     7
 10
377.5
 20
62.0
 30
0.0
 11
377.5
 21
74.5
 31
0.0
  0
LINE
  8
L-ZISSEN
  6
CONTINUOUS
 62
     7
 10
393.5
 20
62.0
 30
0.0
 11
377.5
 21
62.0
 31
0.0
  0
LINE
  8
L-ZISSEN
  6
CONTINUOUS
 62
     7
 10
393.5
 20
74.5
 30
0.0
 11
393.5
 21
62.0
 31
0.0
  0
CIRCLE
  8
L-ZISSEN
  6
CONTINUOUS
 62
     7
 10
385.5
 20
114.5
 30
0.0
 40
8.0
  0
CIRCLE
  8
L-ZISSEN
  6
CONTINUOUS
 62
     7
 10
385.5
 20
185.5
 30
0.0
 40
8.0
  0
CIRCLE
  8
L-ZISSEN
  6
CONTINUOUS
 62
     7
 10
314.5
 20
185.5
 30
0.0
 40
8.0
  0
CIRCLE
  8
L-ZISSEN
  6
CONTINUOUS
 62
     7
 10
314.5
 20
114.5
 30
0.0
 40
8.0
  0
LINE
  8
L-TYUSIN
  6
CENTER
 62
     1
 10
426.0
 20
96.5
 30
0.0
 11
411.5
 21
96.5
 31
0.0
  0
LINE
  8
L-TYUSIN
  6
CENTER
 62
     1
 10
426.0
 20
236.5
 30
0.0
 11
411.5
 21
236.5
 31
0.0
  0
LINE
  8
L-TYUSIN
  6
CENTER
 62
     1
 10
400.0
 20
150.0
 30
0.0
 11
300.0
 21
150.0
 31
0.0
  0
LINE
  8
L-ZISSEN
  6
CONTINUOUS
 62
     7
 10
1512.5
 20
525.0
 30
0.0
 11
1507.0
 21
525.0
 31
0.0
  0
LINE
  8
L-ZISSEN
  6
CONTINUOUS
 62
     7
 10
1525.0
 20
528.5
 30
0.0
 11
1512.5
 21
528.5
 31
0.0
  0
LINE
  8
L-ZISSEN
  6
CONTINUOUS
 62
     7
 10
1512.5
 20
528.5
 30
0.0
 11
1512.5
 21
512.5
 31
0.0
  0
LINE
  8
L-ZISSEN
  6
CONTINUOUS
 62
     7
 10
1512.5
 20
512.5
 30
0.0
 11
1525.0
 21
512.5
 31
0.0
  0
LINE
  8
L-ZISSEN
  6
CONTINUOUS
 62
     7
 10
1535.0
 20
530.0
 30
0.0
 11
1525.0
 21
530.0
 31
0.0
  0
LINE
  8
L-ZISSEN
  6
CONTINUOUS
 62
     7
 10
1525.0
 20
440.0
 30
0.0
 11
1525.0
 21
530.0
 31
0.0
  0
LINE
  8
L-ZISSEN
  6
CONTINUOUS
 62
     7
 10
1507.0
 20
445.0
 30
0.0
 11
1507.0
 21
525.0
 31
0.0
  0
LINE
  8
L-ZISSEN
  6
CONTINUOUS
 62
     7
 10
1512.5
 20
445.0
 30
0.0
 11
1507.0
 21
445.0
 31
0.0
  0
LINE
  8
L-ZISSEN
  6
CONTINUOUS
 62
     7
 10
1535.0
 20
440.0
 30
0.0
 11
1525.0
 21
440.0
 31
0.0
  0
LINE
  8
L-ZISSEN
  6
CONTINUOUS
 62
     7
 10
1512.5
 20
457.5
 30
0.0
 11
1525.0
 21
457.5
 31
0.0
  0
LINE
  8
L-ZISSEN
  6
CONTINUOUS
 62
     7
 10
1512.5
 20
441.5
 30
0.0
 11
1512.5
 21
457.5
 31
0.0
  0
LINE
  8
L-ZISSEN
  6
CONTINUOUS
 62
     7
 10
1525.0
 20
441.5
 30
0.0
 11
1512.5
 21
441.5
 31
0.0
  0
LINE
  8
L-ZISSEN
  6
CONTINUOUS
 62
     7
 10
1635.0
 20
441.5
 30
0.0
 11
1647.5
 21
441.5
 31
0.0
  0
LINE
  8
L-ZISSEN
  6
CONTINUOUS
 62
     7
 10
1647.5
 20
441.5
 30
0.0
 11
1647.5
 21
457.5
 31
0.0
  0
LINE
  8
L-ZISSEN
  6
CONTINUOUS
 62
     7
 10
1647.5
 20
457.5
 30
0.0
 11
1635.0
 21
457.5
 31
0.0
  0
LINE
  8
L-ZISSEN
  6
CONTINUOUS
 62
     7
 10
1625.0
 20
440.0
 30
0.0
 11
1635.0
 21
440.0
 31
0.0
  0
LINE
  8
L-ZISSEN
  6
CONTINUOUS
 62
     7
 10
1647.5
 20
445.0
 30
0.0
 11
1653.0
 21
445.0
 31
0.0
  0
LINE
  8
L-ZISSEN
  6
CONTINUOUS
 62
     7
 10
1653.0
 20
445.0
 30
0.0
 11
1653.0
 21
525.0
 31
0.0
  0
LINE
  8
L-ZISSEN
  6
CONTINUOUS
 62
     7
 10
1635.0
 20
440.0
 30
0.0
 11
1635.0
 21
530.0
 31
0.0
  0
LINE
  8
L-ZISSEN
  6
CONTINUOUS
 62
     7
 10
1625.0
 20
530.0
 30
0.0
 11
1635.0
 21
530.0
 31
0.0
  0
LINE
  8
L-ZISSEN
  6
CONTINUOUS
 62
     7
 10
1647.5
 20
512.5
 30
0.0
 11
1635.0
 21
512.5
 31
0.0
  0
LINE
  8
L-ZISSEN
  6
CONTINUOUS
 62
     7
 10
1647.5
 20
528.5
 30
0.0
 11
1647.5
 21
512.5
 31
0.0
  0
LINE
  8
L-ZISSEN
  6
CONTINUOUS
 62
     7
 10
1635.0
 20
528.5
 30
0.0
 11
1647.5
 21
528.5
 31
0.0
  0
LINE
  8
L-ZISSEN
  6
CONTINUOUS
 62
     7
 10
1647.5
 20
525.0
 30
0.0
 11
1653.0
 21
525.0
 31
0.0
  0
LINE
  8
L-TYUSIN
  6
CENTER
 62
     1
 10
220.1
 20
500.0
 30
0.0
 11
55.0
 21
500.0
 31
0.0
  0
LINE
  8
L-TYUSIN
  6
CENTER
 62
     1
 10
130.0
 20
557.0
 30
0.0
 11
130.0
 21
417.0
 31
0.0
  0
LINE
  8
L-ZISSEN
  6
CONTINUOUS
 62
     7
 10
85.0
 20
450.0
 30
0.0
 11
175.0
 21
450.0
 31
0.0
  0
LINE
  8
L-ZISSEN
  6
CONTINUOUS
 62
     7
 10
90.0
 20
427.5
 30
0.0
 11
90.0
 21
422.0
 31
0.0
  0
LINE
  8
L-ZISSEN
  6
CONTINUOUS
 62
     7
 10
86.5
 20
440.0
 30
0.0
 11
86.5
 21
427.5
 31
0.0
  0
LINE
  8
L-ZISSEN
  6
CONTINUOUS
 62
     7
 10
86.5
 20
427.5
 30
0.0
 11
102.5
 21
427.5
 31
0.0
  0
LINE
  8
L-ZISSEN
  6
CONTINUOUS
 62
     7
 10
102.5
 20
427.5
 30
0.0
 11
102.5
 21
440.0
 31
0.0
  0
LINE
  8
L-ZISSEN
  6
CONTINUOUS
 62
     7
 10
175.0
 20
440.0
 30
0.0
 11
85.0
 21
440.0
 31
0.0
  0
LINE
  8
L-ZISSEN
  6
CONTINUOUS
 62
     7
 10
170.0
 20
422.0
 30
0.0
 11
90.0
 21
422.0
 31
0.0
  0
LINE
  8
L-ZISSEN
  6
CONTINUOUS
 62
     7
 10
170.0
 20
427.5
 30
0.0
 11
170.0
 21
422.0
 31
0.0
  0
LINE
  8
L-ZISSEN
  6
CONTINUOUS
 62
     7
 10
157.5
 20
427.5
 30
0.0
 11
157.5
 21
440.0
 31
0.0
  0
LINE
  8
L-ZISSEN
  6
CONTINUOUS
 62
     7
 10
173.5
 20
427.5
 30
0.0
 11
157.5
 21
427.5
 31
0.0
  0
LINE
  8
L-ZISSEN
  6
CONTINUOUS
 62
     7
 10
173.5
 20
440.0
 30
0.0
 11
173.5
 21
427.5
 31
0.0
  0
LINE
  8
L-ZISSEN
  6
CONTINUOUS
 62
     7
 10
85.0
 20
550.0
 30
0.0
 11
85.0
 21
440.0
 31
0.0
  0
LINE
  8
L-ZISSEN
  6
CONTINUOUS
 62
     7
 10
175.0
 20
550.0
 30
0.0
 11
175.0
 21
525.759047
 31
0.0
  0
LINE
  8
L-ZISSEN
 10
183.0
 20
550.0
 30
0.0
 11
77.0
 21
550.0
 31
0.0
  0
LINE
  8
L-ZISSEN
  6
CONTINUOUS
 62
     7
 10
62.5
 20
540.0
 30
0.0
 11
60.0
 21
540.0
 31
0.0
  0
LINE
  8
L-ZISSEN
  6
CONTINUOUS
 62
     7
 10
75.0
 20
543.5
 30
0.0
 11
62.5
 21
543.5
 31
0.0
  0
LINE
  8
L-ZISSEN
  6
CONTINUOUS
 62
     7
 10
62.5
 20
543.5
 30
0.0
 11
62.5
 21
527.5
 31
0.0
  0
LINE
  8
L-ZISSEN
  6
CONTINUOUS
 62
     7
 10
62.5
 20
527.5
 30
0.0
 11
75.0
 21
527.5
 31
0.0
  0
LINE
  8
L-ZISSEN
  6
CONTINUOUS
 62
     7
 10
75.0
 20
455.0
 30
0.0
 11
75.0
 21
545.0
 31
0.0
  0
LINE
  8
L-ZISSEN
  6
CONTINUOUS
 62
     7
 10
60.0
 20
460.0
 30
0.0
 11
60.0
 21
540.0
 31
0.0
  0
LINE
  8
L-ZISSEN
  6
CONTINUOUS
 62
     7
 10
62.5
 20
460.0
 30
0.0
 11
60.0
 21
460.0
 31
0.0
  0
LINE
  8
L-ZISSEN
  6
CONTINUOUS
 62
     7
 10
62.5
 20
472.5
 30
0.0
 11
75.0
 21
472.5
 31
0.0
  0
LINE
  8
L-ZISSEN
  6
CONTINUOUS
 62
     7
 10
62.5
 20
456.5
 30
0.0
 11
62.5
 21
472.5
 31
0.0
  0
LINE
  8
L-ZISSEN
  6
CONTINUOUS
 62
     7
 10
75.0
 20
456.5
 30
0.0
 11
62.5
 21
456.5
 31
0.0
  0
LINE
  8
L-ZISSEN
  6
CONTINUOUS
 62
     7
 10
185.0
 20
545.0
 30
0.0
 11
75.0
 21
545.0
 31
0.0
  0
LINE
  8
L-ZISSEN
  6
CONTINUOUS
 62
     7
 10
185.0
 20
455.0
 30
0.0
 11
75.0
 21
455.0
 31
0.0
  0
LINE
  8
L-ZISSEN
  6
CONTINUOUS
 62
     7
 10
185.0
 20
456.5
 30
0.0
 11
197.5
 21
456.5
 31
0.0
  0
LINE
  8
L-ZISSEN
  6
CONTINUOUS
 62
     7
 10
197.5
 20
456.5
 30
0.0
 11
197.5
 21
472.5
 31
0.0
  0
LINE
  8
L-ZISSEN
  6
CONTINUOUS
 62
     7
 10
197.5
 20
472.5
 30
0.0
 11
185.0
 21
472.5
 31
0.0
  0
LINE
  8
L-ZISSEN
  6
CONTINUOUS
 62
     7
 10
197.5
 20
460.0
 30
0.0
 11
200.0
 21
460.0
 31
0.0
  0
LINE
  8
L-ZISSEN
  6
CONTINUOUS
 62
     7
 10
200.0
 20
460.0
 30
0.0
 11
200.0
 21
475.113973
 31
0.0
  0
LINE
  8
L-ZISSEN
  6
CONTINUOUS
 62
     7
 10
185.0
 20
455.0
 30
0.0
 11
185.0
 21
474.590161
 31
0.0
  0
LINE
  8
L-ZISSEN
  6
CONTINUOUS
 62
     7
 10
197.5
 20
527.5
 30
0.0
 11
185.0
 21
527.5
 31
0.0
  0
LINE
  8
L-ZISSEN
  6
CONTINUOUS
 62
     7
 10
197.5
 20
543.5
 30
0.0
 11
197.5
 21
527.5
 31
0.0
  0
LINE
  8
L-ZISSEN
  6
CONTINUOUS
 62
     7
 10
185.0
 20
543.5
 30
0.0
 11
197.5
 21
543.5
 31
0.0
  0
LINE
  8
L-ZISSEN
  6
CONTINUOUS
 62
     7
 10
197.5
 20
540.0
 30
0.0
 11
200.0
 21
540.0
 31
0.0
  0
LINE
  8
L-ZISSEN
 10
225.0
 20
571.0
 30
0.0
 11
178.5
 21
571.0
 31
0.0
  0
LINE
  8
L-ZISSEN
 10
225.0
 20
566.5
 30
0.0
 11
225.0
 21
571.0
 31
0.0
  0
LINE
  8
L-ZISSEN
 10
225.0
 20
566.5
 30
0.0
 11
183.0
 21
566.5
 31
0.0
  0
CIRCLE
  8
L-ZISSEN
  6
CONTINUOUS
 62
     7
 10
94.5
 20
464.5
 30
0.0
 40
8.0
  0
CIRCLE
  8
L-ZISSEN
  6
CONTINUOUS
 62
     7
 10
165.5
 20
464.5
 30
0.0
 40
8.0
  0
CIRCLE
  8
L-ZISSEN
  6
CONTINUOUS
 62
     7
 10
165.5
 20
535.5
 30
0.0
 40
8.0
  0
CIRCLE
  8
L-ZISSEN
  6
CONTINUOUS
 62
     7
 10
94.5
 20
535.5
 30
0.0
 40
8.0
  0
LINE
  8
L-ZISSEN
 10
183.0
 20
550.0
 30
0.0
 11
183.0
 21
566.5
 31
0.0
  0
LINE
  8
L-ZISSEN
 10
178.5
 20
554.5
 30
0.0
 11
81.5
 21
554.5
 31
0.0
  0
LINE
  8
L-ZISSEN
 10
178.5
 20
554.5
 30
0.0
 11
178.5
 21
571.0
 31
0.0
  0
LINE
  8
L-ZISSEN
 10
81.5
 20
554.5
 30
0.0
 11
81.5
 21
571.0
 31
0.0
  0
LINE
  8
L-ZISSEN
 10
77.0
 20
550.0
 30
0.0
 11
77.0
 21
566.5
 31
0.0
  0
LINE
  8
L-ZISSEN
 10
35.0
 20
566.5
 30
0.0
 11
77.0
 21
566.5
 31
0.0
  0
LINE
  8
L-ZISSEN
 10
35.0
 20
566.5
 30
0.0
 11
35.0
 21
571.0
 31
0.0
  0
LINE
  8
L-ZISSEN
 10
35.0
 20
571.0
 30
0.0
 11
81.5
 21
571.0
 31
0.0
  0
LINE
  8
L-TYUSIN
  6
CENTER
 62
     1
 10
205.0
 20
576.0
 30
0.0
 11
205.0
 21
561.5
 31
0.0
  0
LINE
  8
L-TYUSIN
  6
CENTER
 62
     1
 10
55.0
 20
576.0
 30
0.0
 11
55.0
 21
561.5
 31
0.0
  0
LINE
  8
L-ZISSEN
  6
CONTINUOUS
 62
     7
 10
86.5
 20
567.0
 30
0.0
 11
86.5
 21
554.5
 31
0.0
  0
LINE
  8
L-ZISSEN
  6
CONTINUOUS
 62
     7
 10
102.5
 20
567.0
 30
0.0
 11
86.5
 21
567.0
 31
0.0
  0
LINE
  8
L-ZISSEN
  6
CONTINUOUS
 62
     7
 10
102.5
 20
554.5
 30
0.0
 11
102.5
 21
567.0
 31
0.0
  0
LINE
  8
L-ZISSEN
  6
CONTINUOUS
 62
     7
 10
173.5
 20
567.0
 30
0.0
 11
157.5
 21
567.0
 31
0.0
  0
LINE
  8
L-ZISSEN
  6
CONTINUOUS
 62
     7
 10
157.5
 20
567.0
 30
0.0
 11
157.5
 21
554.5
 31
0.0
  0
LINE
  8
L-ZISSEN
  6
CONTINUOUS
 62
     7
 10
173.5
 20
554.5
 30
0.0
 11
173.5
 21
567.0
 31
0.0
  0
TEXT
  8
L-ZISSEN
 10
1500.0
 20
570.0
 30
0.0
 40
4.5
  1
MODEL NO. : 36B-C00-****
  0
TEXT
  8
L-ZISSEN
 10
1500.0
 20
580.0
 30
0.0
 40
4.5
  1
FLANGE
  0
SOLID
  8
L-ZISSEN
 10
130.933333
 20
148.2
 30
0.0
 11
131.466667
 21
148.6
 31
0.0
 12
130.0
 22
150.0
 32
0.0
 13
130.0
 23
150.0
 33
0.0
  0
LINE
  8
L-ZISSEN
 10
131.2
 20
148.4
 30
0.0
 11
190.0
 21
70.0
 31
0.0
  0
LINE
  8
L-ZISSEN
 10
190.0
 20
70.0
 30
0.0
 11
192.0
 21
70.0
 31
0.0
  0
TEXT
  8
L-ZISSEN
 10
194.0
 20
67.75
 30
0.0
 40
4.5
  1
P.P
  0
SOLID
  8
L-ZISSEN
 10
1580.370222
 20
483.006499
 30
0.0
 11
1580.996751
 21
483.234328
 31
0.0
 12
1580.0
 22
485.0
 32
0.0
 13
1580.0
 23
485.0
 33
0.0
  0
LINE
  8
L-ZISSEN
 10
1580.683486
 20
483.120413
 30
0.0
 11
1600.0
 21
430.0
 31
0.0
  0
LINE
  8
L-ZISSEN
 10
1600.0
 20
430.0
 30
0.0
 11
1602.0
 21
430.0
 31
0.0
  0
TEXT
  8
L-ZISSEN
 10
1604.0
 20
427.75
 30
0.0
 40
4.5
  1
P.P
  0
SOLID
  8
L-ZISSEN
 10
130.186628
 20
497.98102
 30
0.0
 11
130.831345
 21
498.150682
 31
0.0
 12
130.0
 22
500.0
 32
0.0
 13
130.0
 23
500.0
 33
0.0
  0
LINE
  8
L-ZISSEN
 10
130.508987
 20
498.065851
 30
0.0
 11
155.0
 21
405.0
 31
0.0
  0
LINE
  8
L-ZISSEN
 10
155.0
 20
405.0
 30
0.0
 11
157.0
 21
405.0
 31
0.0
  0
TEXT
  8
L-ZISSEN
 10
159.0
 20
402.75
 30
0.0
 40
4.5
  1
P.P
  0
TEXT
  8
L-ZISSEN
 10
30.0
 20
625.0
 30
0.0
 40
4.5
  1
MODEL NO. : 36B- 00-  B0
  0
TEXT
  8
L-ZISSEN
 10
113.0
 20
628.0
 30
0.0
 40
4.5
  1
0
  0
TEXT
  8
L-ZISSEN
 10
113.0
 20
622.0
 30
0.0
 40
4.5
  1
1
  0
LINE
  8
L-ZISSEN
 10
156.0
 20
344.0
 30
0.0
 11
104.0
 21
344.0
 31
0.0
  0
ARC
  8
L-ZISSEN
 10
130.0
 20
331.0
 30
0.0
 40
13.0
 50
125.234418
 51
54.765582
  0
CIRCLE
  8
L-ZISSEN
 10
130.0
 20
331.0
 30
0.0
 40
9.3
  0
LINE
  8
L-ZISSEN
 10
137.5
 20
344.0
 30
0.0
 11
137.5
 21
341.618381
 31
0.0
  0
LINE
  8
L-ZISSEN
 10
122.5
 20
344.0
 30
0.0
 11
122.5
 21
341.618381
 31
0.0
  0
LINE
  8
L-ZISSEN
 10
156.0
 20
345.5
 30
0.0
 11
156.0
 21
336.0
 31
0.0
  0
LINE
  8
L-ZISSEN
 10
104.0
 20
345.5
 30
0.0
 11
104.0
 21
336.0
 31
0.0
  0
LINE
  8
L-ZISSEN
 10
99.9
 20
336.0
 30
0.0
 11
104.0
 21
336.0
 31
0.0
  0
LINE
  8
L-ZISSEN
 10
156.0
 20
336.0
 30
0.0
 11
168.1
 21
336.0
 31
0.0
  0
LINE
  8
L-ZISSEN
 10
158.1
 20
336.0
 30
0.0
 11
158.1
 21
286.5
 31
0.0
  0
LINE
  8
L-ZISSEN
 10
99.9
 20
336.0
 30
0.0
 11
99.9
 21
286.5
 31
0.0
  0
LINE
  8
L-ZISSEN
 10
101.9
 20
336.0
 30
0.0
 11
101.9
 21
286.5
 31
0.0
  0
LINE
  8
L-ZISSEN
 10
104.0
 20
345.5
 30
0.0
 11
156.0
 21
345.5
 31
0.0
  0
LINE
  8
L-ZISSEN
 10
1306.7
 20
689.0
 30
0.0
 11
1306.7
 21
651.0
 31
0.0
  0
LINE
  8
L-ZISSEN
 10
1296.1
 20
696.0
 30
0.0
 11
1296.1
 21
644.0
 31
0.0
  0
LINE
  8
L-ZISSEN
 10
1222.0
 20
696.0
 30
0.0
 11
1296.1
 21
696.0
 31
0.0
  0
LINE
  8
L-ZISSEN
 10
1077.9
 20
644.0
 30
0.0
 11
1296.1
 21
644.0
 31
0.0
  0
LINE
  8
L-ZISSEN
 10
1300.74282
 20
689.0
 30
0.0
 11
1306.7
 21
689.0
 31
0.0
  0
LINE
  8
L-ZISSEN
 10
1300.74282
 20
651.0
 30
0.0
 11
1306.7
 21
651.0
 31
0.0
  0
LINE
  8
L-ZISSEN
 10
1300.74282
 20
694.49995
 30
0.0
 11
1296.1
 21
694.49995
 31
0.0
  0
LINE
  8
L-ZISSEN
 10
1306.7
 20
681.0
 30
0.0
 11
1307.7
 21
681.0
 31
0.0
  0
LINE
  8
L-ZISSEN
 10
1307.7
 20
659.0
 30
0.0
 11
1306.7
 21
659.0
 31
0.0
  0
LINE
  8
L-ZISSEN
 10
1307.7
 20
681.0
 30
0.0
 11
1307.7
 21
659.0
 31
0.0
  0
LINE
  8
L-ZISSEN
  6
CONTINUOUS
 62
     7
 10
1224.1
 20
644.0
 30
0.0
 11
1224.1
 21
696.0
 31
0.0
  0
LINE
  8
L-ZISSEN
 10
1300.74282
 20
685.50005
 30
0.0
 11
1300.74282
 21
694.49995
 31
0.0
  0
LINE
  8
L-ZISSEN
 10
1300.74282
 20
685.50005
 30
0.0
 11
1296.1
 21
685.50005
 31
0.0
  0
LINE
  8
L-ZISSEN
 10
1300.74282
 20
654.49995
 30
0.0
 11
1296.1
 21
654.49995
 31
0.0
  0
LINE
  8
L-ZISSEN
 10
1300.74282
 20
654.49995
 30
0.0
 11
1300.74282
 21
645.50005
 31
0.0
  0
LINE
  8
L-ZISSEN
 10
1300.74282
 20
645.50005
 30
0.0
 11
1296.1
 21
645.50005
 31
0.0
  0
CIRCLE
  8
L-ZISSEN
 10
1187.0
 20
691.0
 30
0.0
 40
9.3155
  0
LINE
  8
L-ZISSEN
  6
CONTINUOUS
 62
     7
 10
1159.5
 20
709.1
 30
0.0
 11
1152.5
 21
709.1
 31
0.0
  0
LINE
  8
L-ZISSEN
  6
CONTINUOUS
 62
     7
 10
1159.5
 20
705.5
 30
0.0
 11
1159.5
 21
709.1
 31
0.0
  0
LINE
  8
L-ZISSEN
  6
CONTINUOUS
 62
     7
 10
1152.5
 20
705.5
 30
0.0
 11
1152.5
 21
709.1
 31
0.0
  0
LINE
  8
L-ZISSEN
  6
CONTINUOUS
 62
     7
 10
1152.0
 20
705.5
 30
0.0
 11
1152.0
 21
696.0
 31
0.0
  0
LINE
  8
L-ZISSEN
  6
CONTINUOUS
 62
     7
 10
1221.5
 20
705.5
 30
0.0
 11
1221.5
 21
709.1
 31
0.0
  0
LINE
  8
L-ZISSEN
  6
CONTINUOUS
 62
     7
 10
1214.5
 20
705.5
 30
0.0
 11
1214.5
 21
709.1
 31
0.0
  0
LINE
  8
L-ZISSEN
  6
CONTINUOUS
 62
     7
 10
1214.5
 20
709.1
 30
0.0
 11
1221.5
 21
709.1
 31
0.0
  0
LINE
  8
L-ZISSEN
  6
CONTINUOUS
 62
     7
 10
1179.5
 20
704.0
 30
0.0
 11
1179.5
 21
701.618381
 31
0.0
  0
LINE
  8
L-ZISSEN
  6
CONTINUOUS
 62
     7
 10
1194.5
 20
704.0
 30
0.0
 11
1194.5
 21
701.618381
 31
0.0
  0
ARC
  8
L-ZISSEN
  6
CONTINUOUS
 62
     7
 10
1187.0
 20
691.0
 30
0.0
 40
13.0
 50
125.234418
 51
54.765582
  0
LINE
  8
L-ZISSEN
  6
CONTINUOUS
 62
     7
 10
1224.1
 20
644.0
 30
0.0
 11
1224.1
 21
696.0
 31
0.0
  0
LINE
  8
L-ZISSEN
  6
CONTINUOUS
 62
     7
 10
1152.0
 20
705.5
 30
0.0
 11
1221.9
 21
705.5
 31
0.0
  0
LINE
  8
L-ZISSEN
  6
CONTINUOUS
 62
     7
 10
1222.0
 20
705.5
 30
0.0
 11
1222.0
 21
696.0
 31
0.0
  0
LINE
  8
L-ZISSEN
  6
CONTINUOUS
 62
     7
 10
1221.9
 20
704.0
 30
0.0
 11
1152.0
 21
704.0
 31
0.0
  0
LINE
  8
L-ZISSEN
 10
143.0
 20
472.0
 30
0.0
 11
117.0
 21
472.0
 31
0.0
  0
LINE
  8
L-ZISSEN
 10
143.0
 20
474.0
 30
0.0
 11
143.0
 21
472.0
 31
0.0
  0
LINE
  8
L-ZISSEN
 10
143.0
 20
528.0
 30
0.0
 11
117.0
 21
528.0
 31
0.0
  0
LINE
  8
L-ZISSEN
 10
143.0
 20
528.0
 30
0.0
 11
143.0
 21
526.0
 31
0.0
  0
LINE
  8
L-ZISSEN
 10
117.0
 20
528.0
 30
0.0
 11
117.0
 21
526.0
 31
0.0
  0
LINE
  8
L-ZISSEN
 10
117.0
 20
474.0
 30
0.0
 11
117.0
 21
472.0
 31
0.0
  0
LINE
  8
L-ZISSEN
  6
CONTINUOUS
 62
     7
 10
101.9
 20
474.0
 30
0.0
 11
101.9
 21
526.0
 31
0.0
  0
LINE
  8
L-ZISSEN
  6
CONTINUOUS
 62
     7
 10
99.9
 20
526.0
 30
0.0
 11
99.9
 21
474.0
 31
0.0
  0
LINE
  8
L-ZISSEN
  6
CONTINUOUS
 62
     7
 10
96.6
 20
524.5
 30
0.0
 11
96.6
 21
515.5
 31
0.0
  0
LINE
  8
L-ZISSEN
  6
CONTINUOUS
 62
     7
 10
99.9
 20
515.5
 30
0.0
 11
96.6
 21
515.5
 31
0.0
  0
LINE
  8
L-ZISSEN
  6
CONTINUOUS
 62
     7
 10
99.9
 20
524.5
 30
0.0
 11
96.6
 21
524.5
 31
0.0
  0
LINE
  8
L-ZISSEN
  6
CONTINUOUS
 62
     7
 10
99.9
 20
484.5
 30
0.0
 11
96.6
 21
484.5
 31
0.0
  0
LINE
  8
L-ZISSEN
  6
CONTINUOUS
 62
     7
 10
99.9
 20
475.5
 30
0.0
 11
96.6
 21
475.5
 31
0.0
  0
LINE
  8
L-ZISSEN
  6
CONTINUOUS
 62
     7
 10
96.6
 20
484.5
 30
0.0
 11
96.6
 21
475.5
 31
0.0
  0
LINE
  8
L-ZISSEN
  6
CONTINUOUS
 62
     7
 10
158.1
 20
474.0
 30
0.0
 11
158.1
 21
526.0
 31
0.0
  0
LINE
  8
L-ZISSEN
  6
CONTINUOUS
 62
     7
 10
168.1
 20
526.0
 30
0.0
 11
214.1
 21
524.393644
 31
0.0
  0
LINE
  8
L-ZISSEN
  6
CONTINUOUS
 62
     7
 10
215.1
 20
489.0
 30
0.0
 11
214.1
 21
489.0
 31
0.0
  0
LINE
  8
L-ZISSEN
  6
CONTINUOUS
 62
     7
 10
215.1
 20
511.0
 30
0.0
 11
215.1
 21
489.0
 31
0.0
  0
LINE
  8
L-ZISSEN
  6
CONTINUOUS
 62
     7
 10
215.1
 20
511.0
 30
0.0
 11
214.1
 21
511.0
 31
0.0
  0
LINE
  8
L-ZISSEN
  6
CONTINUOUS
 62
     7
 10
214.1
 20
475.606356
 30
0.0
 11
214.1
 21
524.393644
 31
0.0
  0
LINE
  8
L-ZISSEN
  6
CONTINUOUS
 62
     7
 10
168.1
 20
474.0
 30
0.0
 11
214.1
 21
475.606356
 31
0.0
  0
LINE
  8
L-ZISSEN
 10
175.0
 20
526.0
 30
0.0
 11
85.0
 21
526.0
 31
0.0
  0
LINE
  8
L-ZISSEN
 10
175.0
 20
474.0
 30
0.0
 11
85.0
 21
474.0
 31
0.0
  0
LINE
  8
L-ZISSEN
 10
104.0
 20
474.0
 30
0.0
 11
104.0
 21
526.0
 31
0.0
  0
LINE
  8
L-ZISSEN
 10
156.0
 20
474.0
 30
0.0
 11
156.0
 21
526.0
 31
0.0
  0
LINE
  8
L-ZISSEN
 10
1296.1
 20
734.0
 30
0.0
 11
1077.9
 21
734.0
 31
0.0
  0
LINE
  8
L-ZISSEN
 10
1222.0
 20
734.0
 30
0.0
 11
1222.0
 21
786.0
 31
0.0
  0
LINE
  8
L-ZISSEN
  6
CONTINUOUS
 62
     7
 10
1224.1
 20
734.0
 30
0.0
 11
1224.1
 21
786.0
 31
0.0
  0
LINE
  8
L-ZISSEN
 10
1174.0
 20
732.0
 30
0.0
 11
1174.0
 21
734.0
 31
0.0
  0
LINE
  8
L-ZISSEN
 10
1200.0
 20
732.0
 30
0.0
 11
1174.0
 21
732.0
 31
0.0
  0
LINE
  8
L-ZISSEN
 10
1200.0
 20
732.0
 30
0.0
 11
1200.0
 21
734.0
 31
0.0
  0
LINE
  8
L-ZISSEN
 10
1296.1
 20
786.0
 30
0.0
 11
1077.9
 21
786.0
 31
0.0
  0
LINE
  8
L-ZISSEN
 10
1200.0
 20
788.0
 30
0.0
 11
1200.0
 21
786.0
 31
0.0
  0
LINE
  8
L-ZISSEN
 10
1200.0
 20
788.0
 30
0.0
 11
1174.0
 21
788.0
 31
0.0
  0
LINE
  8
L-ZISSEN
 10
1174.0
 20
788.0
 30
0.0
 11
1174.0
 21
786.0
 31
0.0
  0
LINE
  8
L-ZISSEN
 10
1300.74282
 20
735.50005
 30
0.0
 11
1296.1
 21
735.50005
 31
0.0
  0
LINE
  8
L-ZISSEN
 10
1300.74282
 20
744.49995
 30
0.0
 11
1300.74282
 21
735.50005
 31
0.0
  0
LINE
  8
L-ZISSEN
 10
1300.74282
 20
744.49995
 30
0.0
 11
1296.1
 21
744.49995
 31
0.0
  0
LINE
  8
L-ZISSEN
 10
1300.74282
 20
775.50005
 30
0.0
 11
1296.1
 21
775.50005
 31
0.0
  0
LINE
  8
L-ZISSEN
 10
1300.74282
 20
775.50005
 30
0.0
 11
1300.74282
 21
784.49995
 31
0.0
  0
LINE
  8
L-ZISSEN
 10
1307.7
 20
771.0
 30
0.0
 11
1307.7
 21
749.0
 31
0.0
  0
LINE
  8
L-ZISSEN
 10
1307.7
 20
749.0
 30
0.0
 11
1306.7
 21
749.0
 31
0.0
  0
LINE
  8
L-ZISSEN
 10
1306.7
 20
771.0
 30
0.0
 11
1307.7
 21
771.0
 31
0.0
  0
LINE
  8
L-ZISSEN
 10
1300.74282
 20
784.49995
 30
0.0
 11
1296.1
 21
784.49995
 31
0.0
  0
LINE
  8
L-ZISSEN
 10
1300.74282
 20
741.0
 30
0.0
 11
1306.7
 21
741.0
 31
0.0
  0
LINE
  8
L-ZISSEN
 10
1300.74282
 20
779.0
 30
0.0
 11
1306.7
 21
779.0
 31
0.0
  0
LINE
  8
L-ZISSEN
 10
1296.1
 20
786.0
 30
0.0
 11
1296.1
 21
734.0
 31
0.0
  0
LINE
  8
L-ZISSEN
 10
1306.7
 20
779.0
 30
0.0
 11
1306.7
 21
741.0
 31
0.0
  0
CIRCLE
  8
L-ZISSEN
 10
1390.0
 20
670.0
 30
0.0
 40
11.0
  0
LINE
  8
L-ZISSEN
  6
CONTINUOUS
 62
     7
 10
1415.5
 20
705.5
 30
0.0
 11
1415.5
 21
709.1
 31
0.0
  0
LINE
  8
L-ZISSEN
  6
CONTINUOUS
 62
     7
 10
1408.5
 20
705.5
 30
0.0
 11
1408.5
 21
709.1
 31
0.0
  0
LINE
  8
L-ZISSEN
  6
CONTINUOUS
 62
     7
 10
1408.5
 20
709.1
 30
0.0
 11
1415.5
 21
709.1
 31
0.0
  0
LINE
  8
L-ZISSEN
 10
1416.0
 20
678.0
 30
0.0
 11
1418.0
 21
678.0
 31
0.0
  0
LINE
  8
L-ZISSEN
 10
1362.0
 20
678.0
 30
0.0
 11
1364.0
 21
678.0
 31
0.0
  0
LINE
  8
L-ZISSEN
  6
CONTINUOUS
 62
     7
 10
1371.5
 20
709.1
 30
0.0
 11
1364.5
 21
709.1
 31
0.0
  0
LINE
  8
L-ZISSEN
  6
CONTINUOUS
 62
     7
 10
1371.5
 20
705.5
 30
0.0
 11
1371.5
 21
709.1
 31
0.0
  0
LINE
  8
L-ZISSEN
  6
CONTINUOUS
 62
     7
 10
1364.5
 20
705.5
 30
0.0
 11
1364.5
 21
709.1
 31
0.0
  0
LINE
  8
L-ZISSEN
 10
1418.0
 20
678.0
 30
0.0
 11
1418.0
 21
704.0
 31
0.0
  0
LINE
  8
L-ZISSEN
 10
1364.0
 20
705.5
 30
0.0
 11
1416.0
 21
705.5
 31
0.0
  0
LINE
  8
L-ZISSEN
 10
1362.0
 20
704.0
 30
0.0
 11
1418.0
 21
704.0
 31
0.0
  0
LINE
  8
L-ZISSEN
 10
1416.0
 20
705.5
 30
0.0
 11
1416.0
 21
644.0
 31
0.0
  0
LINE
  8
L-ZISSEN
 10
1362.0
 20
678.0
 30
0.0
 11
1362.0
 21
704.0
 31
0.0
  0
LINE
  8
L-ZISSEN
 10
1364.0
 20
696.0
 30
0.0
 11
1416.0
 21
696.0
 31
0.0
  0
LINE
  8
L-ZISSEN
 10
1364.0
 20
644.0
 30
0.0
 11
1364.0
 21
705.5
 31
0.0
  0
LINE
  8
L-ZISSEN
 10
1364.0
 20
644.0
 30
0.0
 11
1416.0
 21
644.0
 31
0.0
  0
CIRCLE
  8
L-ZISSEN
 10
1390.0
 20
670.0
 30
0.0
 40
19.0
  0
CIRCLE
  8
L-ZISSEN
 10
1370.0
 20
690.0
 30
0.0
 40
4.49995
  0
CIRCLE
  8
L-ZISSEN
 10
1410.0
 20
690.0
 30
0.0
 40
4.49995
  0
CIRCLE
  8
L-ZISSEN
 10
1370.0
 20
650.0
 30
0.0
 40
4.49995
  0
CIRCLE
  8
L-ZISSEN
 10
1410.0
 20
650.0
 30
0.0
 40
4.49995
  0
LINE
  8
L-ZISSEN
 10
1614.0
 20
644.0
 30
0.0
 11
1614.0
 21
709.6
 31
0.0
  0
LINE
  8
L-ZISSEN
 10
1666.0
 20
709.6
 30
0.0
 11
1666.0
 21
644.0
 31
0.0
  0
LINE
  8
L-ZISSEN
 10
1612.0
 20
704.0
 30
0.0
 11
1668.0
 21
704.0
 31
0.0
  0
LINE
  8
L-ZISSEN
 10
1614.0
 20
709.6
 30
0.0
 11
1666.0
 21
709.6
 31
0.0
  0
LINE
  8
L-ZISSEN
  6
CONTINUOUS
 62
     7
 10
1614.5
 20
709.6
 30
0.0
 11
1614.5
 21
713.2
 31
0.0
  0
LINE
  8
L-ZISSEN
  6
CONTINUOUS
 62
     7
 10
1621.5
 20
709.6
 30
0.0
 11
1621.5
 21
713.2
 31
0.0
  0
LINE
  8
L-ZISSEN
  6
CONTINUOUS
 62
     7
 10
1621.5
 20
713.2
 30
0.0
 11
1614.5
 21
713.2
 31
0.0
  0
LINE
  8
L-ZISSEN
  6
CONTINUOUS
 62
     7
 10
1658.5
 20
713.2
 30
0.0
 11
1665.5
 21
713.2
 31
0.0
  0
LINE
  8
L-ZISSEN
  6
CONTINUOUS
 62
     7
 10
1658.5
 20
709.6
 30
0.0
 11
1658.5
 21
713.2
 31
0.0
  0
LINE
  8
L-ZISSEN
  6
CONTINUOUS
 62
     7
 10
1665.5
 20
709.6
 30
0.0
 11
1665.5
 21
713.2
 31
0.0
  0
LINE
  8
L-ZISSEN
  6
CONTINUOUS
 62
     7
 10
1572.0
 20
704.0
 30
0.0
 11
1502.0
 21
704.0
 31
0.0
  0
LINE
  8
L-ZISSEN
  6
CONTINUOUS
 62
     7
 10
1572.0
 20
709.6
 30
0.0
 11
1572.0
 21
696.0
 31
0.0
  0
LINE
  8
L-ZISSEN
  6
CONTINUOUS
 62
     7
 10
1502.0
 20
709.6
 30
0.0
 11
1572.0
 21
709.6
 31
0.0
  0
LINE
  8
L-ZISSEN
  6
CONTINUOUS
 62
     7
 10
1564.5
 20
713.2
 30
0.0
 11
1571.5
 21
713.2
 31
0.0
  0
LINE
  8
L-ZISSEN
  6
CONTINUOUS
 62
     7
 10
1564.5
 20
709.6
 30
0.0
 11
1564.5
 21
713.2
 31
0.0
  0
LINE
  8
L-ZISSEN
  6
CONTINUOUS
 62
     7
 10
1571.5
 20
709.6
 30
0.0
 11
1571.5
 21
713.2
 31
0.0
  0
LINE
  8
L-ZISSEN
  6
CONTINUOUS
 62
     7
 10
1502.0
 20
709.6
 30
0.0
 11
1502.0
 21
696.0
 31
0.0
  0
LINE
  8
L-ZISSEN
  6
CONTINUOUS
 62
     7
 10
1502.5
 20
709.6
 30
0.0
 11
1502.5
 21
713.2
 31
0.0
  0
LINE
  8
L-ZISSEN
  6
CONTINUOUS
 62
     7
 10
1509.5
 20
709.6
 30
0.0
 11
1509.5
 21
713.2
 31
0.0
  0
LINE
  8
L-ZISSEN
  6
CONTINUOUS
 62
     7
 10
1509.5
 20
713.2
 30
0.0
 11
1502.5
 21
713.2
 31
0.0
  0
LINE
  8
L-ZISSEN
 10
1556.0
 20
709.6
 30
0.0
 11
1556.0
 21
716.1
 31
0.0
  0
LINE
  8
L-ZISSEN
 10
1548.0
 20
716.1
 30
0.0
 11
1548.0
 21
709.6
 31
0.0
  0
CIRCLE
  8
L-ZISSEN
 10
1552.0
 20
778.0
 30
0.0
 40
4.0
  0
LINE
  8
L-ZISSEN
  6
CONTINUOUS
 62
     7
 10
1548.0
 20
716.1
 30
0.0
 11
1556.0
 21
716.1
 31
0.0
  0
LINE
  8
L-ZISSEN
  6
CONTINUOUS
 62
     7
 10
1662.0
 20
716.1
 30
0.0
 11
1654.0
 21
716.1
 31
0.0
  0
LINE
  8
L-ZISSEN
 10
1662.0
 20
716.1
 30
0.0
 11
1662.0
 21
713.2
 31
0.0
  0
LINE
  8
L-ZISSEN
 10
1654.0
 20
709.6
 30
0.0
 11
1654.0
 21
716.1
 31
0.0
  0
TEXT
  8
L-ZISSEN
 10
1500.0
 20
830.0
 30
0.0
 40
4.5
  1
PILOT LAMP
  0
LINE
  8
L-TYUSIN
 10
1015.0
 20
1110.0
 30
0.0
 11
1015.0
 21
110.0
 31
0.0
  0
LINE
  8
L-TYUSIN
 10
675.0
 20
610.0
 30
0.0
 11
1705.0
 21
610.0
 31
0.0
  0
LINE
  8
L-ZISSEN
  6
CONTINUOUS
 62
     7
 10
111.5
 20
349.1
 30
0.0
 11
104.5
 21
349.1
 31
0.0
  0
LINE
  8
L-ZISSEN
  6
CONTINUOUS
 62
     7
 10
111.5
 20
345.5
 30
0.0
 11
111.5
 21
349.1
 31
0.0
  0
LINE
  8
L-ZISSEN
  6
CONTINUOUS
 62
     7
 10
104.5
 20
345.5
 30
0.0
 11
104.5
 21
349.1
 31
0.0
  0
LINE
  8
L-ZISSEN
  6
CONTINUOUS
 62
     7
 10
96.6
 20
334.5
 30
0.0
 11
96.6
 21
325.5
 31
0.0
  0
LINE
  8
L-ZISSEN
  6
CONTINUOUS
 62
     7
 10
99.9
 20
325.5
 30
0.0
 11
96.6
 21
325.5
 31
0.0
  0
LINE
  8
L-ZISSEN
  6
CONTINUOUS
 62
     7
 10
99.9
 20
334.5
 30
0.0
 11
96.6
 21
334.5
 31
0.0
  0
LINE
  8
L-ZISSEN
  6
CONTINUOUS
 62
     7
 10
99.9
 20
294.5
 30
0.0
 11
96.6
 21
294.5
 31
0.0
  0
LINE
  8
L-ZISSEN
  6
CONTINUOUS
 62
     7
 10
96.6
 20
294.5
 30
0.0
 11
96.6
 21
286.5
 31
0.0
  0
LINE
  8
L-ZISSEN
  6
CONTINUOUS
 62
     7
 10
173.5
 20
284.188572
 30
0.0
 11
214.1
 21
285.606356
 31
0.0
  0
LINE
  8
L-ZISSEN
  6
CONTINUOUS
 62
     7
 10
168.1
 20
336.0
 30
0.0
 11
214.1
 21
334.393644
 31
0.0
  0
LINE
  8
L-ZISSEN
  6
CONTINUOUS
 62
     7
 10
215.1
 20
299.0
 30
0.0
 11
214.1
 21
299.0
 31
0.0
  0
LINE
  8
L-ZISSEN
  6
CONTINUOUS
 62
     7
 10
215.1
 20
321.0
 30
0.0
 11
215.1
 21
299.0
 31
0.0
  0
LINE
  8
L-ZISSEN
  6
CONTINUOUS
 62
     7
 10
215.1
 20
321.0
 30
0.0
 11
214.1
 21
321.0
 31
0.0
  0
LINE
  8
L-ZISSEN
  6
CONTINUOUS
 62
     7
 10
214.1
 20
285.606356
 30
0.0
 11
214.1
 21
334.393644
 31
0.0
  0
CIRCLE
  8
L-ZISSEN
 10
350.0
 20
310.0
 30
0.0
 40
11.0
  0
LINE
  8
L-ZISSEN
  6
CONTINUOUS
 62
     7
 10
375.5
 20
345.5
 30
0.0
 11
375.5
 21
349.1
 31
0.0
  0
LINE
  8
L-ZISSEN
  6
CONTINUOUS
 62
     7
 10
368.5
 20
345.5
 30
0.0
 11
368.5
 21
349.1
 31
0.0
  0
LINE
  8
L-ZISSEN
  6
CONTINUOUS
 62
     7
 10
368.5
 20
349.1
 30
0.0
 11
375.5
 21
349.1
 31
0.0
  0
LINE
  8
L-ZISSEN
 10
376.0
 20
318.0
 30
0.0
 11
378.0
 21
318.0
 31
0.0
  0
LINE
  8
L-ZISSEN
 10
322.0
 20
318.0
 30
0.0
 11
324.0
 21
318.0
 31
0.0
  0
LINE
  8
L-ZISSEN
  6
CONTINUOUS
 62
     7
 10
331.5
 20
349.1
 30
0.0
 11
324.5
 21
349.1
 31
0.0
  0
LINE
  8
L-ZISSEN
  6
CONTINUOUS
 62
     7
 10
331.5
 20
345.5
 30
0.0
 11
331.5
 21
349.1
 31
0.0
  0
LINE
  8
L-ZISSEN
  6
CONTINUOUS
 62
     7
 10
324.5
 20
345.5
 30
0.0
 11
324.5
 21
349.1
 31
0.0
  0
LINE
  8
L-ZISSEN
 10
378.0
 20
318.0
 30
0.0
 11
378.0
 21
344.0
 31
0.0
  0
LINE
  8
L-ZISSEN
 10
324.0
 20
345.5
 30
0.0
 11
376.0
 21
345.5
 31
0.0
  0
LINE
  8
L-ZISSEN
 10
322.0
 20
344.0
 30
0.0
 11
378.0
 21
344.0
 31
0.0
  0
LINE
  8
L-ZISSEN
 10
322.0
 20
318.0
 30
0.0
 11
322.0
 21
344.0
 31
0.0
  0
LINE
  8
L-ZISSEN
 10
324.0
 20
336.0
 30
0.0
 11
376.0
 21
336.0
 31
0.0
  0
LINE
  8
L-ZISSEN
  6
CONTINUOUS
 62
     7
 10
148.5
 20
345.5
 30
0.0
 11
148.5
 21
349.1
 31
0.0
  0
LINE
  8
L-ZISSEN
  6
CONTINUOUS
 62
     7
 10
155.5
 20
345.5
 30
0.0
 11
155.5
 21
349.1
 31
0.0
  0
LINE
  8
L-ZISSEN
  6
CONTINUOUS
 62
     7
 10
155.5
 20
349.1
 30
0.0
 11
148.5
 21
349.1
 31
0.0
  0
LINE
  8
L-ZISSEN
 10
1067.3
 20
779.0
 30
0.0
 11
1067.3
 21
741.0
 31
0.0
  0
LINE
  8
L-ZISSEN
 10
1077.9
 20
786.0
 30
0.0
 11
1077.9
 21
734.0
 31
0.0
  0
LINE
  8
L-ZISSEN
 10
1073.25718
 20
779.0
 30
0.0
 11
1067.3
 21
779.0
 31
0.0
  0
LINE
  8
L-ZISSEN
 10
1073.25718
 20
741.0
 30
0.0
 11
1067.3
 21
741.0
 31
0.0
  0
LINE
  8
L-ZISSEN
 10
1073.25718
 20
784.49995
 30
0.0
 11
1077.9
 21
784.49995
 31
0.0
  0
LINE
  8
L-ZISSEN
 10
1067.3
 20
771.0
 30
0.0
 11
1066.3
 21
771.0
 31
0.0
  0
LINE
  8
L-ZISSEN
 10
1066.3
 20
749.0
 30
0.0
 11
1067.3
 21
749.0
 31
0.0
  0
LINE
  8
L-ZISSEN
 10
1066.3
 20
771.0
 30
0.0
 11
1066.3
 21
749.0
 31
0.0
  0
LINE
  8
L-ZISSEN
 10
1073.25718
 20
775.50005
 30
0.0
 11
1073.25718
 21
784.49995
 31
0.0
  0
LINE
  8
L-ZISSEN
 10
1073.25718
 20
775.50005
 30
0.0
 11
1077.9
 21
775.50005
 31
0.0
  0
LINE
  8
L-ZISSEN
 10
1073.25718
 20
744.49995
 30
0.0
 11
1077.9
 21
744.49995
 31
0.0
  0
LINE
  8
L-ZISSEN
 10
1073.25718
 20
744.49995
 30
0.0
 11
1073.25718
 21
735.50005
 31
0.0
  0
LINE
  8
L-ZISSEN
 10
1073.25718
 20
735.50005
 30
0.0
 11
1077.9
 21
735.50005
 31
0.0
  0
LINE
  8
L-ZISSEN
  6
CONTINUOUS
 62
     7
 10
1149.9
 20
734.0
 30
0.0
 11
1149.9
 21
786.0
 31
0.0
  0
LINE
  8
L-ZISSEN
 10
1152.0
 20
734.0
 30
0.0
 11
1152.0
 21
786.0
 31
0.0
  0
LINE
  8
L-ZISSEN
  6
CONTINUOUS
 62
     7
 10
1149.9
 20
644.0
 30
0.0
 11
1149.9
 21
696.0
 31
0.0
  0
LINE
  8
L-ZISSEN
 10
1073.25718
 20
645.50005
 30
0.0
 11
1077.9
 21
645.50005
 31
0.0
  0
LINE
  8
L-ZISSEN
 10
1073.25718
 20
654.49995
 30
0.0
 11
1073.25718
 21
645.50005
 31
0.0
  0
LINE
  8
L-ZISSEN
 10
1073.25718
 20
654.49995
 30
0.0
 11
1077.9
 21
654.49995
 31
0.0
  0
LINE
  8
L-ZISSEN
 10
1073.25718
 20
685.50005
 30
0.0
 11
1077.9
 21
685.50005
 31
0.0
  0
LINE
  8
L-ZISSEN
 10
1073.25718
 20
685.50005
 30
0.0
 11
1073.25718
 21
694.49995
 31
0.0
  0
LINE
  8
L-ZISSEN
  6
CONTINUOUS
 62
     7
 10
1149.9
 20
644.0
 30
0.0
 11
1149.9
 21
696.0
 31
0.0
  0
LINE
  8
L-ZISSEN
 10
1066.3
 20
681.0
 30
0.0
 11
1066.3
 21
659.0
 31
0.0
  0
LINE
  8
L-ZISSEN
 10
1066.3
 20
659.0
 30
0.0
 11
1067.3
 21
659.0
 31
0.0
  0
LINE
  8
L-ZISSEN
 10
1067.3
 20
681.0
 30
0.0
 11
1066.3
 21
681.0
 31
0.0
  0
LINE
  8
L-ZISSEN
 10
1073.25718
 20
694.49995
 30
0.0
 11
1077.9
 21
694.49995
 31
0.0
  0
LINE
  8
L-ZISSEN
 10
1073.25718
 20
651.0
 30
0.0
 11
1067.3
 21
651.0
 31
0.0
  0
LINE
  8
L-ZISSEN
 10
1073.25718
 20
689.0
 30
0.0
 11
1067.3
 21
689.0
 31
0.0
  0
LINE
  8
L-ZISSEN
 10
1152.0
 20
696.0
 30
0.0
 11
1077.9
 21
696.0
 31
0.0
  0
LINE
  8
L-ZISSEN
 10
1077.9
 20
696.0
 30
0.0
 11
1077.9
 21
644.0
 31
0.0
  0
LINE
  8
L-ZISSEN
 10
1067.3
 20
689.0
 30
0.0
 11
1067.3
 21
651.0
 31
0.0
  0
CIRCLE
  8
L-ZISSEN
 10
1218.0
 20
738.0
 30
0.0
 40
3.5
  0
CIRCLE
  8
L-ZISSEN
 10
1156.0
 20
738.0
 30
0.0
 40
3.5
  0
CIRCLE
  8
L-ZISSEN
 10
1156.0
 20
782.0
 30
0.0
 40
3.5
  0
CIRCLE
  8
L-ZISSEN
 10
1218.0
 20
782.0
 30
0.0
 40
3.5
  0
LINE
  8
L-TYUSIN
 10
675.0
 20
860.0
 30
0.0
 11
1705.0
 21
860.0
 31
0.0
  0
LINE
  8
L-TYUSIN
 10
1455.0
 20
1110.0
 30
0.0
 11
1455.0
 21
110.0
 31
0.0
  0
CIRCLE
  8
L-ZISSEN
 10
1218.0
 20
532.0
 30
0.0
 40
3.5
  0
CIRCLE
  8
L-ZISSEN
 10
1156.0
 20
532.0
 30
0.0
 40
3.5
  0
CIRCLE
  8
L-ZISSEN
 10
1156.0
 20
488.0
 30
0.0
 40
3.5
  0
CIRCLE
  8
L-ZISSEN
 10
1218.0
 20
488.0
 30
0.0
 40
3.5
  0
LINE
  8
L-ZISSEN
  6
CONTINUOUS
 62
     7
 10
1149.9
 20
394.0
 30
0.0
 11
1149.9
 21
446.0
 31
0.0
  0
LINE
  8
L-ZISSEN
  6
CONTINUOUS
 62
     7
 10
1149.9
 20
394.0
 30
0.0
 11
1149.9
 21
446.0
 31
0.0
  0
LINE
  8
L-ZISSEN
 10
1152.0
 20
484.0
 30
0.0
 11
1152.0
 21
536.0
 31
0.0
  0
LINE
  8
L-ZISSEN
  6
CONTINUOUS
 62
     7
 10
1149.9
 20
484.0
 30
0.0
 11
1149.9
 21
536.0
 31
0.0
  0
LINE
  8
L-TYUSIN
 10
675.0
 20
360.0
 30
0.0
 11
1455.0
 21
360.0
 31
0.0
  0
LINE
  8
L-ZISSEN
 10
1364.0
 20
394.0
 30
0.0
 11
1416.0
 21
394.0
 31
0.0
  0
LINE
  8
L-ZISSEN
 10
1364.0
 20
394.0
 30
0.0
 11
1364.0
 21
455.5
 31
0.0
  0
LINE
  8
L-ZISSEN
 10
1364.0
 20
446.0
 30
0.0
 11
1416.0
 21
446.0
 31
0.0
  0
LINE
  8
L-ZISSEN
 10
1362.0
 20
428.0
 30
0.0
 11
1362.0
 21
454.0
 31
0.0
  0
LINE
  8
L-ZISSEN
 10
1416.0
 20
455.5
 30
0.0
 11
1416.0
 21
394.0
 31
0.0
  0
LINE
  8
L-ZISSEN
 10
1362.0
 20
454.0
 30
0.0
 11
1418.0
 21
454.0
 31
0.0
  0
LINE
  8
L-ZISSEN
 10
1364.0
 20
455.5
 30
0.0
 11
1416.0
 21
455.5
 31
0.0
  0
LINE
  8
L-ZISSEN
 10
1418.0
 20
428.0
 30
0.0
 11
1418.0
 21
454.0
 31
0.0
  0
LINE
  8
L-ZISSEN
  6
CONTINUOUS
 62
     7
 10
1364.5
 20
455.5
 30
0.0
 11
1364.5
 21
459.1
 31
0.0
  0
LINE
  8
L-ZISSEN
  6
CONTINUOUS
 62
     7
 10
1371.5
 20
455.5
 30
0.0
 11
1371.5
 21
459.1
 31
0.0
  0
LINE
  8
L-ZISSEN
  6
CONTINUOUS
 62
     7
 10
1371.5
 20
459.1
 30
0.0
 11
1364.5
 21
459.1
 31
0.0
  0
LINE
  8
L-ZISSEN
 10
1362.0
 20
428.0
 30
0.0
 11
1364.0
 21
428.0
 31
0.0
  0
LINE
  8
L-ZISSEN
 10
1416.0
 20
428.0
 30
0.0
 11
1418.0
 21
428.0
 31
0.0
  0
LINE
  8
L-ZISSEN
  6
CONTINUOUS
 62
     7
 10
1408.5
 20
459.1
 30
0.0
 11
1415.5
 21
459.1
 31
0.0
  0
LINE
  8
L-ZISSEN
  6
CONTINUOUS
 62
     7
 10
1408.5
 20
455.5
 30
0.0
 11
1408.5
 21
459.1
 31
0.0
  0
LINE
  8
L-ZISSEN
  6
CONTINUOUS
 62
     7
 10
1415.5
 20
455.5
 30
0.0
 11
1415.5
 21
459.1
 31
0.0
  0
LINE
  8
L-ZISSEN
 10
1174.0
 20
538.0
 30
0.0
 11
1174.0
 21
536.0
 31
0.0
  0
LINE
  8
L-ZISSEN
 10
1200.0
 20
538.0
 30
0.0
 11
1174.0
 21
538.0
 31
0.0
  0
LINE
  8
L-ZISSEN
 10
1200.0
 20
538.0
 30
0.0
 11
1200.0
 21
536.0
 31
0.0
  0
LINE
  8
L-ZISSEN
 10
1234.1
 20
536.0
 30
0.0
 11
1139.9
 21
536.0
 31
0.0
  0
LINE
  8
L-ZISSEN
 10
1200.0
 20
482.0
 30
0.0
 11
1200.0
 21
484.0
 31
0.0
  0
LINE
  8
L-ZISSEN
 10
1200.0
 20
482.0
 30
0.0
 11
1174.0
 21
482.0
 31
0.0
  0
LINE
  8
L-ZISSEN
 10
1174.0
 20
482.0
 30
0.0
 11
1174.0
 21
484.0
 31
0.0
  0
LINE
  8
L-ZISSEN
  6
CONTINUOUS
 62
     7
 10
1224.1
 20
484.0
 30
0.0
 11
1224.1
 21
536.0
 31
0.0
  0
LINE
  8
L-ZISSEN
 10
1222.0
 20
484.0
 30
0.0
 11
1222.0
 21
536.0
 31
0.0
  0
LINE
  8
L-ZISSEN
 10
1234.1
 20
484.0
 30
0.0
 11
1139.9
 21
484.0
 31
0.0
  0
LINE
  8
L-ZISSEN
  6
CONTINUOUS
 62
     7
 10
1221.9
 20
454.0
 30
0.0
 11
1152.0
 21
454.0
 31
0.0
  0
LINE
  8
L-ZISSEN
  6
CONTINUOUS
 62
     7
 10
1222.0
 20
455.5
 30
0.0
 11
1222.0
 21
446.0
 31
0.0
  0
LINE
  8
L-ZISSEN
  6
CONTINUOUS
 62
     7
 10
1152.0
 20
455.5
 30
0.0
 11
1221.9
 21
455.5
 31
0.0
  0
LINE
  8
L-ZISSEN
  6
CONTINUOUS
 62
     7
 10
1224.1
 20
394.0
 30
0.0
 11
1224.1
 21
446.0
 31
0.0
  0
ARC
  8
L-ZISSEN
  6
CONTINUOUS
 62
     7
 10
1187.0
 20
441.0
 30
0.0
 40
13.0
 50
125.234418
 51
54.765582
  0
LINE
  8
L-ZISSEN
  6
CONTINUOUS
 62
     7
 10
1194.5
 20
454.0
 30
0.0
 11
1194.5
 21
451.618381
 31
0.0
  0
LINE
  8
L-ZISSEN
  6
CONTINUOUS
 62
     7
 10
1179.5
 20
454.0
 30
0.0
 11
1179.5
 21
451.618381
 31
0.0
  0
LINE
  8
L-ZISSEN
  6
CONTINUOUS
 62
     7
 10
1214.5
 20
459.1
 30
0.0
 11
1221.5
 21
459.1
 31
0.0
  0
LINE
  8
L-ZISSEN
  6
CONTINUOUS
 62
     7
 10
1214.5
 20
455.5
 30
0.0
 11
1214.5
 21
459.1
 31
0.0
  0
LINE
  8
L-ZISSEN
  6
CONTINUOUS
 62
     7
 10
1221.5
 20
455.5
 30
0.0
 11
1221.5
 21
459.1
 31
0.0
  0
LINE
  8
L-ZISSEN
  6
CONTINUOUS
 62
     7
 10
1152.0
 20
455.5
 30
0.0
 11
1152.0
 21
446.0
 31
0.0
  0
LINE
  8
L-ZISSEN
  6
CONTINUOUS
 62
     7
 10
1152.5
 20
455.5
 30
0.0
 11
1152.5
 21
459.1
 31
0.0
  0
LINE
  8
L-ZISSEN
  6
CONTINUOUS
 62
     7
 10
1159.5
 20
455.5
 30
0.0
 11
1159.5
 21
459.1
 31
0.0
  0
LINE
  8
L-ZISSEN
  6
CONTINUOUS
 62
     7
 10
1159.5
 20
459.1
 30
0.0
 11
1152.5
 21
459.1
 31
0.0
  0
CIRCLE
  8
L-ZISSEN
 10
1187.0
 20
441.0
 30
0.0
 40
9.3155
  0
LINE
  8
L-ZISSEN
  6
CONTINUOUS
 62
     7
 10
1224.1
 20
394.0
 30
0.0
 11
1224.1
 21
446.0
 31
0.0
  0
LINE
  8
L-ZISSEN
 10
1139.9
 20
394.0
 30
0.0
 11
1234.1
 21
394.0
 31
0.0
  0
LINE
  8
L-ZISSEN
 10
1222.0
 20
446.0
 30
0.0
 11
1234.1
 21
446.0
 31
0.0
  0
LINE
  8
L-ZISSEN
  6
CONTINUOUS
 62
     7
 10
1234.1
 20
394.0
 30
0.0
 11
1280.1
 21
395.606356
 31
0.0
  0
LINE
  8
L-ZISSEN
  6
CONTINUOUS
 62
     7
 10
1280.1
 20
395.606356
 30
0.0
 11
1280.1
 21
444.393644
 31
0.0
  0
LINE
  8
L-ZISSEN
 10
1280.1
 20
431.0
 30
0.0
 11
1293.1
 21
431.0
 31
0.0
  0
LINE
  8
L-ZISSEN
  6
CONTINUOUS
 62
     7
 10
1293.1
 20
429.0
 30
0.0
 11
1299.1
 21
429.0
 31
0.0
  0
LINE
  8
L-ZISSEN
  6
CONTINUOUS
 62
     7
 10
1299.1
 20
427.25
 30
0.0
 11
1306.1
 21
427.25
 31
0.0
  0
LINE
  8
L-ZISSEN
 10
1280.1
 20
409.0
 30
0.0
 11
1293.1
 21
409.0
 31
0.0
  0
LINE
  8
L-ZISSEN
  6
CONTINUOUS
 62
     7
 10
1299.1
 20
429.0
 30
0.0
 11
1299.1
 21
411.0
 31
0.0
  0
LINE
  8
L-ZISSEN
  6
CONTINUOUS
 62
     7
 10
1293.1
 20
411.0
 30
0.0
 11
1299.1
 21
411.0
 31
0.0
  0
LINE
  8
L-ZISSEN
  6
CONTINUOUS
 62
     7
 10
1299.1
 20
412.75
 30
0.0
 11
1306.1
 21
412.75
 31
0.0
  0
LINE
  8
L-ZISSEN
  6
CONTINUOUS
 62
     7
 10
1306.1
 20
427.25
 30
0.0
 11
1306.1
 21
412.75
 31
0.0
  0
LINE
  8
L-ZISSEN
  6
CONTINUOUS
 62
     7
 10
1293.1
 20
431.0
 30
0.0
 11
1293.1
 21
409.0
 31
0.0
  0
LINE
  8
L-ZISSEN
  6
CONTINUOUS
 62
     7
 10
1234.1
 20
446.0
 30
0.0
 11
1280.1
 21
444.393644
 31
0.0
  0
CIRCLE
  8
L-ZISSEN
 10
1390.0
 20
420.0
 30
0.0
 40
7.25
  0
CIRCLE
  8
L-ZISSEN
 10
1390.0
 20
420.0
 30
0.0
 40
9.0
  0
CIRCLE
  8
L-ZISSEN
 10
1390.0
 20
420.0
 30
0.0
 40
11.0
  0
LINE
  8
L-ZISSEN
  6
CONTINUOUS
 62
     7
 10
1139.9
 20
446.0
 30
0.0
 11
1093.9
 21
444.393644
 31
0.0
  0
LINE
  8
L-ZISSEN
  6
CONTINUOUS
 62
     7
 10
1080.9
 20
431.0
 30
0.0
 11
1080.9
 21
409.0
 31
0.0
  0
LINE
  8
L-ZISSEN
  6
CONTINUOUS
 62
     7
 10
1067.9
 20
427.25
 30
0.0
 11
1067.9
 21
412.75
 31
0.0
  0
LINE
  8
L-ZISSEN
  6
CONTINUOUS
 62
     7
 10
1074.9
 20
412.75
 30
0.0
 11
1067.9
 21
412.75
 31
0.0
  0
LINE
  8
L-ZISSEN
  6
CONTINUOUS
 62
     7
 10
1080.9
 20
411.0
 30
0.0
 11
1074.9
 21
411.0
 31
0.0
  0
LINE
  8
L-ZISSEN
  6
CONTINUOUS
 62
     7
 10
1074.9
 20
429.0
 30
0.0
 11
1074.9
 21
411.0
 31
0.0
  0
LINE
  8
L-ZISSEN
 10
1093.9
 20
409.0
 30
0.0
 11
1080.9
 21
409.0
 31
0.0
  0
LINE
  8
L-ZISSEN
  6
CONTINUOUS
 62
     7
 10
1074.9
 20
427.25
 30
0.0
 11
1067.9
 21
427.25
 31
0.0
  0
LINE
  8
L-ZISSEN
  6
CONTINUOUS
 62
     7
 10
1080.9
 20
429.0
 30
0.0
 11
1074.9
 21
429.0
 31
0.0
  0
LINE
  8
L-ZISSEN
 10
1093.9
 20
431.0
 30
0.0
 11
1080.9
 21
431.0
 31
0.0
  0
LINE
  8
L-ZISSEN
  6
CONTINUOUS
 62
     7
 10
1093.9
 20
395.606356
 30
0.0
 11
1093.9
 21
444.393644
 31
0.0
  0
LINE
  8
L-ZISSEN
  6
CONTINUOUS
 62
     7
 10
1139.9
 20
394.0
 30
0.0
 11
1093.9
 21
395.606356
 31
0.0
  0
LINE
  8
L-ZISSEN
 10
1152.0
 20
446.0
 30
0.0
 11
1139.9
 21
446.0
 31
0.0
  0
LINE
  8
L-ZISSEN
  6
CONTINUOUS
 62
     7
 10
1149.9
 20
394.0
 30
0.0
 11
1149.9
 21
446.0
 31
0.0
  0
LINE
  8
L-ZISSEN
  6
CONTINUOUS
 62
     7
 10
1149.9
 20
394.0
 30
0.0
 11
1149.9
 21
446.0
 31
0.0
  0
LINE
  8
L-ZISSEN
  6
CONTINUOUS
 62
     7
 10
1234.1
 20
536.0
 30
0.0
 11
1280.1
 21
534.393644
 31
0.0
  0
LINE
  8
L-ZISSEN
  6
CONTINUOUS
 62
     7
 10
1293.1
 20
521.0
 30
0.0
 11
1293.1
 21
499.0
 31
0.0
  0
LINE
  8
L-ZISSEN
  6
CONTINUOUS
 62
     7
 10
1306.1
 20
517.25
 30
0.0
 11
1306.1
 21
502.75
 31
0.0
  0
LINE
  8
L-ZISSEN
  6
CONTINUOUS
 62
     7
 10
1299.1
 20
502.75
 30
0.0
 11
1306.1
 21
502.75
 31
0.0
  0
LINE
  8
L-ZISSEN
  6
CONTINUOUS
 62
     7
 10
1293.1
 20
501.0
 30
0.0
 11
1299.1
 21
501.0
 31
0.0
  0
LINE
  8
L-ZISSEN
  6
CONTINUOUS
 62
     7
 10
1299.1
 20
519.0
 30
0.0
 11
1299.1
 21
501.0
 31
0.0
  0
LINE
  8
L-ZISSEN
 10
1280.1
 20
499.0
 30
0.0
 11
1293.1
 21
499.0
 31
0.0
  0
LINE
  8
L-ZISSEN
  6
CONTINUOUS
 62
     7
 10
1299.1
 20
517.25
 30
0.0
 11
1306.1
 21
517.25
 31
0.0
  0
LINE
  8
L-ZISSEN
  6
CONTINUOUS
 62
     7
 10
1293.1
 20
519.0
 30
0.0
 11
1299.1
 21
519.0
 31
0.0
  0
LINE
  8
L-ZISSEN
 10
1280.1
 20
521.0
 30
0.0
 11
1293.1
 21
521.0
 31
0.0
  0
LINE
  8
L-ZISSEN
  6
CONTINUOUS
 62
     7
 10
1280.1
 20
485.606356
 30
0.0
 11
1280.1
 21
534.393644
 31
0.0
  0
LINE
  8
L-ZISSEN
  6
CONTINUOUS
 62
     7
 10
1234.1
 20
484.0
 30
0.0
 11
1280.1
 21
485.606356
 31
0.0
  0
LINE
  8
L-ZISSEN
  6
CONTINUOUS
 62
     7
 10
1139.9
 20
484.0
 30
0.0
 11
1093.9
 21
485.606356
 31
0.0
  0
LINE
  8
L-ZISSEN
  6
CONTINUOUS
 62
     7
 10
1093.9
 20
485.606356
 30
0.0
 11
1093.9
 21
534.393644
 31
0.0
  0
LINE
  8
L-ZISSEN
 10
1093.9
 20
521.0
 30
0.0
 11
1080.9
 21
521.0
 31
0.0
  0
LINE
  8
L-ZISSEN
  6
CONTINUOUS
 62
     7
 10
1080.9
 20
519.0
 30
0.0
 11
1074.9
 21
519.0
 31
0.0
  0
LINE
  8
L-ZISSEN
  6
CONTINUOUS
 62
     7
 10
1074.9
 20
517.25
 30
0.0
 11
1067.9
 21
517.25
 31
0.0
  0
LINE
  8
L-ZISSEN
 10
1093.9
 20
499.0
 30
0.0
 11
1080.9
 21
499.0
 31
0.0
  0
LINE
  8
L-ZISSEN
  6
CONTINUOUS
 62
     7
 10
1074.9
 20
519.0
 30
0.0
 11
1074.9
 21
501.0
 31
0.0
  0
LINE
  8
L-ZISSEN
  6
CONTINUOUS
 62
     7
 10
1080.9
 20
501.0
 30
0.0
 11
1074.9
 21
501.0
 31
0.0
  0
LINE
  8
L-ZISSEN
  6
CONTINUOUS
 62
     7
 10
1074.9
 20
502.75
 30
0.0
 11
1067.9
 21
502.75
 31
0.0
  0
LINE
  8
L-ZISSEN
  6
CONTINUOUS
 62
     7
 10
1067.9
 20
517.25
 30
0.0
 11
1067.9
 21
502.75
 31
0.0
  0
LINE
  8
L-ZISSEN
  6
CONTINUOUS
 62
     7
 10
1080.9
 20
521.0
 30
0.0
 11
1080.9
 21
499.0
 31
0.0
  0
LINE
  8
L-ZISSEN
  6
CONTINUOUS
 62
     7
 10
1139.9
 20
536.0
 30
0.0
 11
1093.9
 21
534.393644
 31
0.0
  0
CIRCLE
  8
L-ZISSEN
 10
1218.0
 20
282.0
 30
0.0
 40
3.5
  0
CIRCLE
  8
L-ZISSEN
 10
1156.0
 20
282.0
 30
0.0
 40
3.5
  0
CIRCLE
  8
L-ZISSEN
 10
1156.0
 20
238.0
 30
0.0
 40
3.5
  0
CIRCLE
  8
L-ZISSEN
 10
1218.0
 20
238.0
 30
0.0
 40
3.5
  0
LINE
  8
L-ZISSEN
 10
1067.3
 20
189.0
 30
0.0
 11
1067.3
 21
151.0
 31
0.0
  0
LINE
  8
L-ZISSEN
 10
1077.9
 20
196.0
 30
0.0
 11
1077.9
 21
144.0
 31
0.0
  0
LINE
  8
L-ZISSEN
 10
1152.0
 20
196.0
 30
0.0
 11
1077.9
 21
196.0
 31
0.0
  0
LINE
  8
L-ZISSEN
 10
1073.25718
 20
189.0
 30
0.0
 11
1067.3
 21
189.0
 31
0.0
  0
LINE
  8
L-ZISSEN
 10
1073.25718
 20
151.0
 30
0.0
 11
1067.3
 21
151.0
 31
0.0
  0
LINE
  8
L-ZISSEN
 10
1073.25718
 20
194.49995
 30
0.0
 11
1077.9
 21
194.49995
 31
0.0
  0
LINE
  8
L-ZISSEN
  6
CONTINUOUS
 62
     7
 10
1149.9
 20
144.0
 30
0.0
 11
1149.9
 21
196.0
 31
0.0
  0
LINE
  8
L-ZISSEN
 10
1073.25718
 20
185.50005
 30
0.0
 11
1073.25718
 21
194.49995
 31
0.0
  0
LINE
  8
L-ZISSEN
 10
1073.25718
 20
185.50005
 30
0.0
 11
1077.9
 21
185.50005
 31
0.0
  0
LINE
  8
L-ZISSEN
 10
1073.25718
 20
154.49995
 30
0.0
 11
1077.9
 21
154.49995
 31
0.0
  0
LINE
  8
L-ZISSEN
 10
1073.25718
 20
154.49995
 30
0.0
 11
1073.25718
 21
145.50005
 31
0.0
  0
LINE
  8
L-ZISSEN
 10
1073.25718
 20
145.50005
 30
0.0
 11
1077.9
 21
145.50005
 31
0.0
  0
LINE
  8
L-ZISSEN
  6
CONTINUOUS
 62
     7
 10
1149.9
 20
144.0
 30
0.0
 11
1149.9
 21
196.0
 31
0.0
  0
LINE
  8
L-ZISSEN
 10
1152.0
 20
234.0
 30
0.0
 11
1152.0
 21
286.0
 31
0.0
  0
LINE
  8
L-ZISSEN
  6
CONTINUOUS
 62
     7
 10
1149.9
 20
234.0
 30
0.0
 11
1149.9
 21
286.0
 31
0.0
  0
LINE
  8
L-ZISSEN
 10
1073.25718
 20
235.50005
 30
0.0
 11
1077.9
 21
235.50005
 31
0.0
  0
LINE
  8
L-ZISSEN
 10
1073.25718
 20
244.49995
 30
0.0
 11
1073.25718
 21
235.50005
 31
0.0
  0
LINE
  8
L-ZISSEN
 10
1073.25718
 20
244.49995
 30
0.0
 11
1077.9
 21
244.49995
 31
0.0
  0
LINE
  8
L-ZISSEN
 10
1073.25718
 20
275.50005
 30
0.0
 11
1077.9
 21
275.50005
 31
0.0
  0
LINE
  8
L-ZISSEN
 10
1073.25718
 20
275.50005
 30
0.0
 11
1073.25718
 21
284.49995
 31
0.0
  0
LINE
  8
L-ZISSEN
 10
1073.25718
 20
284.49995
 30
0.0
 11
1077.9
 21
284.49995
 31
0.0
  0
LINE
  8
L-ZISSEN
 10
1073.25718
 20
241.0
 30
0.0
 11
1067.3
 21
241.0
 31
0.0
  0
LINE
  8
L-ZISSEN
 10
1073.25718
 20
279.0
 30
0.0
 11
1067.3
 21
279.0
 31
0.0
  0
LINE
  8
L-ZISSEN
 10
1077.9
 20
286.0
 30
0.0
 11
1077.9
 21
234.0
 31
0.0
  0
LINE
  8
L-ZISSEN
 10
1067.3
 20
279.0
 30
0.0
 11
1067.3
 21
241.0
 31
0.0
  0
CIRCLE
  8
L-ZISSEN
 10
1410.0
 20
150.0
 30
0.0
 40
4.49995
  0
CIRCLE
  8
L-ZISSEN
 10
1370.0
 20
150.0
 30
0.0
 40
4.49995
  0
CIRCLE
  8
L-ZISSEN
 10
1410.0
 20
190.0
 30
0.0
 40
4.49995
  0
CIRCLE
  8
L-ZISSEN
 10
1370.0
 20
190.0
 30
0.0
 40
4.49995
  0
CIRCLE
  8
L-ZISSEN
 10
1390.0
 20
170.0
 30
0.0
 40
19.0
  0
LINE
  8
L-ZISSEN
 10
1364.0
 20
144.0
 30
0.0
 11
1416.0
 21
144.0
 31
0.0
  0
LINE
  8
L-ZISSEN
 10
1364.0
 20
144.0
 30
0.0
 11
1364.0
 21
205.5
 31
0.0
  0
LINE
  8
L-ZISSEN
 10
1364.0
 20
196.0
 30
0.0
 11
1416.0
 21
196.0
 31
0.0
  0
LINE
  8
L-ZISSEN
 10
1362.0
 20
178.0
 30
0.0
 11
1362.0
 21
204.0
 31
0.0
  0
LINE
  8
L-ZISSEN
 10
1416.0
 20
205.5
 30
0.0
 11
1416.0
 21
144.0
 31
0.0
  0
LINE
  8
L-ZISSEN
 10
1362.0
 20
204.0
 30
0.0
 11
1418.0
 21
204.0
 31
0.0
  0
LINE
  8
L-ZISSEN
 10
1364.0
 20
205.5
 30
0.0
 11
1416.0
 21
205.5
 31
0.0
  0
LINE
  8
L-ZISSEN
 10
1418.0
 20
178.0
 30
0.0
 11
1418.0
 21
204.0
 31
0.0
  0
LINE
  8
L-ZISSEN
  6
CONTINUOUS
 62
     7
 10
1364.5
 20
205.5
 30
0.0
 11
1364.5
 21
209.1
 31
0.0
  0
LINE
  8
L-ZISSEN
  6
CONTINUOUS
 62
     7
 10
1371.5
 20
205.5
 30
0.0
 11
1371.5
 21
209.1
 31
0.0
  0
LINE
  8
L-ZISSEN
  6
CONTINUOUS
 62
     7
 10
1371.5
 20
209.1
 30
0.0
 11
1364.5
 21
209.1
 31
0.0
  0
LINE
  8
L-ZISSEN
 10
1362.0
 20
178.0
 30
0.0
 11
1364.0
 21
178.0
 31
0.0
  0
LINE
  8
L-ZISSEN
 10
1416.0
 20
178.0
 30
0.0
 11
1418.0
 21
178.0
 31
0.0
  0
LINE
  8
L-ZISSEN
  6
CONTINUOUS
 62
     7
 10
1408.5
 20
209.1
 30
0.0
 11
1415.5
 21
209.1
 31
0.0
  0
LINE
  8
L-ZISSEN
  6
CONTINUOUS
 62
     7
 10
1408.5
 20
205.5
 30
0.0
 11
1408.5
 21
209.1
 31
0.0
  0
LINE
  8
L-ZISSEN
  6
CONTINUOUS
 62
     7
 10
1415.5
 20
205.5
 30
0.0
 11
1415.5
 21
209.1
 31
0.0
  0
LINE
  8
L-ZISSEN
 10
1306.7
 20
279.0
 30
0.0
 11
1306.7
 21
241.0
 31
0.0
  0
LINE
  8
L-ZISSEN
 10
1296.1
 20
286.0
 30
0.0
 11
1296.1
 21
234.0
 31
0.0
  0
LINE
  8
L-ZISSEN
 10
1300.74282
 20
279.0
 30
0.0
 11
1306.7
 21
279.0
 31
0.0
  0
LINE
  8
L-ZISSEN
 10
1300.74282
 20
241.0
 30
0.0
 11
1306.7
 21
241.0
 31
0.0
  0
LINE
  8
L-ZISSEN
 10
1300.74282
 20
284.49995
 30
0.0
 11
1296.1
 21
284.49995
 31
0.0
  0
LINE
  8
L-ZISSEN
 10
1300.74282
 20
275.50005
 30
0.0
 11
1300.74282
 21
284.49995
 31
0.0
  0
LINE
  8
L-ZISSEN
 10
1300.74282
 20
275.50005
 30
0.0
 11
1296.1
 21
275.50005
 31
0.0
  0
LINE
  8
L-ZISSEN
 10
1300.74282
 20
244.49995
 30
0.0
 11
1296.1
 21
244.49995
 31
0.0
  0
LINE
  8
L-ZISSEN
 10
1300.74282
 20
244.49995
 30
0.0
 11
1300.74282
 21
235.50005
 31
0.0
  0
LINE
  8
L-ZISSEN
 10
1300.74282
 20
235.50005
 30
0.0
 11
1296.1
 21
235.50005
 31
0.0
  0
LINE
  8
L-ZISSEN
 10
1174.0
 20
288.0
 30
0.0
 11
1174.0
 21
286.0
 31
0.0
  0
LINE
  8
L-ZISSEN
 10
1200.0
 20
288.0
 30
0.0
 11
1174.0
 21
288.0
 31
0.0
  0
LINE
  8
L-ZISSEN
 10
1200.0
 20
288.0
 30
0.0
 11
1200.0
 21
286.0
 31
0.0
  0
LINE
  8
L-ZISSEN
 10
1296.1
 20
286.0
 30
0.0
 11
1077.9
 21
286.0
 31
0.0
  0
LINE
  8
L-ZISSEN
 10
1200.0
 20
232.0
 30
0.0
 11
1200.0
 21
234.0
 31
0.0
  0
LINE
  8
L-ZISSEN
 10
1200.0
 20
232.0
 30
0.0
 11
1174.0
 21
232.0
 31
0.0
  0
LINE
  8
L-ZISSEN
 10
1174.0
 20
232.0
 30
0.0
 11
1174.0
 21
234.0
 31
0.0
  0
LINE
  8
L-ZISSEN
  6
CONTINUOUS
 62
     7
 10
1224.1
 20
234.0
 30
0.0
 11
1224.1
 21
286.0
 31
0.0
  0
LINE
  8
L-ZISSEN
 10
1222.0
 20
234.0
 30
0.0
 11
1222.0
 21
286.0
 31
0.0
  0
LINE
  8
L-ZISSEN
 10
1296.1
 20
234.0
 30
0.0
 11
1077.9
 21
234.0
 31
0.0
  0
LINE
  8
L-ZISSEN
  6
CONTINUOUS
 62
     7
 10
1221.9
 20
204.0
 30
0.0
 11
1152.0
 21
204.0
 31
0.0
  0
LINE
  8
L-ZISSEN
  6
CONTINUOUS
 62
     7
 10
1222.0
 20
205.5
 30
0.0
 11
1222.0
 21
196.0
 31
0.0
  0
LINE
  8
L-ZISSEN
  6
CONTINUOUS
 62
     7
 10
1152.0
 20
205.5
 30
0.0
 11
1221.9
 21
205.5
 31
0.0
  0
LINE
  8
L-ZISSEN
  6
CONTINUOUS
 62
     7
 10
1224.1
 20
144.0
 30
0.0
 11
1224.1
 21
196.0
 31
0.0
  0
ARC
  8
L-ZISSEN
  6
CONTINUOUS
 62
     7
 10
1187.0
 20
191.0
 30
0.0
 40
13.0
 50
125.234418
 51
54.765582
  0
LINE
  8
L-ZISSEN
  6
CONTINUOUS
 62
     7
 10
1194.5
 20
204.0
 30
0.0
 11
1194.5
 21
201.618381
 31
0.0
  0
LINE
  8
L-ZISSEN
  6
CONTINUOUS
 62
     7
 10
1179.5
 20
204.0
 30
0.0
 11
1179.5
 21
201.618381
 31
0.0
  0
LINE
  8
L-ZISSEN
  6
CONTINUOUS
 62
     7
 10
1214.5
 20
209.1
 30
0.0
 11
1221.5
 21
209.1
 31
0.0
  0
LINE
  8
L-ZISSEN
  6
CONTINUOUS
 62
     7
 10
1214.5
 20
205.5
 30
0.0
 11
1214.5
 21
209.1
 31
0.0
  0
LINE
  8
L-ZISSEN
  6
CONTINUOUS
 62
     7
 10
1221.5
 20
205.5
 30
0.0
 11
1221.5
 21
209.1
 31
0.0
  0
LINE
  8
L-ZISSEN
  6
CONTINUOUS
 62
     7
 10
1152.0
 20
205.5
 30
0.0
 11
1152.0
 21
196.0
 31
0.0
  0
LINE
  8
L-ZISSEN
  6
CONTINUOUS
 62
     7
 10
1152.5
 20
205.5
 30
0.0
 11
1152.5
 21
209.1
 31
0.0
  0
LINE
  8
L-ZISSEN
  6
CONTINUOUS
 62
     7
 10
1159.5
 20
205.5
 30
0.0
 11
1159.5
 21
209.1
 31
0.0
  0
LINE
  8
L-ZISSEN
  6
CONTINUOUS
 62
     7
 10
1159.5
 20
209.1
 30
0.0
 11
1152.5
 21
209.1
 31
0.0
  0
CIRCLE
  8
L-ZISSEN
 10
1187.0
 20
191.0
 30
0.0
 40
9.3155
  0
LINE
  8
L-ZISSEN
 10
1300.74282
 20
145.50005
 30
0.0
 11
1296.1
 21
145.50005
 31
0.0
  0
LINE
  8
L-ZISSEN
 10
1300.74282
 20
154.49995
 30
0.0
 11
1300.74282
 21
145.50005
 31
0.0
  0
LINE
  8
L-ZISSEN
 10
1300.74282
 20
154.49995
 30
0.0
 11
1296.1
 21
154.49995
 31
0.0
  0
LINE
  8
L-ZISSEN
 10
1300.74282
 20
185.50005
 30
0.0
 11
1296.1
 21
185.50005
 31
0.0
  0
LINE
  8
L-ZISSEN
 10
1300.74282
 20
185.50005
 30
0.0
 11
1300.74282
 21
194.49995
 31
0.0
  0
LINE
  8
L-ZISSEN
  6
CONTINUOUS
 62
     7
 10
1224.1
 20
144.0
 30
0.0
 11
1224.1
 21
196.0
 31
0.0
  0
LINE
  8
L-ZISSEN
 10
1300.74282
 20
194.49995
 30
0.0
 11
1296.1
 21
194.49995
 31
0.0
  0
LINE
  8
L-ZISSEN
 10
1300.74282
 20
151.0
 30
0.0
 11
1306.7
 21
151.0
 31
0.0
  0
LINE
  8
L-ZISSEN
 10
1300.74282
 20
189.0
 30
0.0
 11
1306.7
 21
189.0
 31
0.0
  0
LINE
  8
L-ZISSEN
 10
1077.9
 20
144.0
 30
0.0
 11
1296.1
 21
144.0
 31
0.0
  0
LINE
  8
L-ZISSEN
 10
1222.0
 20
196.0
 30
0.0
 11
1296.1
 21
196.0
 31
0.0
  0
LINE
  8
L-ZISSEN
 10
1296.1
 20
196.0
 30
0.0
 11
1296.1
 21
144.0
 31
0.0
  0
LINE
  8
L-ZISSEN
 10
1306.7
 20
189.0
 30
0.0
 11
1306.7
 21
151.0
 31
0.0
  0
LINE
  8
L-ZISSEN
  6
CONTINUOUS
 62
     7
 10
1319.7
 20
271.0
 30
0.0
 11
1319.7
 21
249.0
 31
0.0
  0
LINE
  8
L-ZISSEN
  6
CONTINUOUS
 62
     7
 10
1333.0
 20
267.25
 30
0.0
 11
1333.0
 21
252.75
 31
0.0
  0
LINE
  8
L-ZISSEN
  6
CONTINUOUS
 62
     7
 10
1325.7
 20
252.75
 30
0.0
 11
1333.0
 21
252.75
 31
0.0
  0
LINE
  8
L-ZISSEN
  6
CONTINUOUS
 62
     7
 10
1319.7
 20
251.0
 30
0.0
 11
1325.7
 21
251.0
 31
0.0
  0
LINE
  8
L-ZISSEN
  6
CONTINUOUS
 62
     7
 10
1325.7
 20
269.0
 30
0.0
 11
1325.7
 21
251.0
 31
0.0
  0
LINE
  8
L-ZISSEN
 10
1306.7
 20
249.0
 30
0.0
 11
1319.7
 21
249.0
 31
0.0
  0
LINE
  8
L-ZISSEN
  6
CONTINUOUS
 62
     7
 10
1325.7
 20
267.25
 30
0.0
 11
1333.0
 21
267.25
 31
0.0
  0
LINE
  8
L-ZISSEN
  6
CONTINUOUS
 62
     7
 10
1319.7
 20
269.0
 30
0.0
 11
1325.7
 21
269.0
 31
0.0
  0
LINE
  8
L-ZISSEN
 10
1306.7
 20
271.0
 30
0.0
 11
1319.7
 21
271.0
 31
0.0
  0
LINE
  8
L-ZISSEN
 10
1067.3
 20
271.0
 30
0.0
 11
1054.3
 21
271.0
 31
0.0
  0
LINE
  8
L-ZISSEN
  6
CONTINUOUS
 62
     7
 10
1054.3
 20
269.0
 30
0.0
 11
1048.3
 21
269.0
 31
0.0
  0
LINE
  8
L-ZISSEN
  6
CONTINUOUS
 62
     7
 10
1048.3
 20
267.25
 30
0.0
 11
1041.0
 21
267.25
 31
0.0
  0
LINE
  8
L-ZISSEN
 10
1067.3
 20
249.0
 30
0.0
 11
1054.3
 21
249.0
 31
0.0
  0
LINE
  8
L-ZISSEN
  6
CONTINUOUS
 62
     7
 10
1048.3
 20
269.0
 30
0.0
 11
1048.3
 21
251.0
 31
0.0
  0
LINE
  8
L-ZISSEN
  6
CONTINUOUS
 62
     7
 10
1054.3
 20
251.0
 30
0.0
 11
1048.3
 21
251.0
 31
0.0
  0
LINE
  8
L-ZISSEN
  6
CONTINUOUS
 62
     7
 10
1048.3
 20
252.75
 30
0.0
 11
1041.0
 21
252.75
 31
0.0
  0
LINE
  8
L-ZISSEN
  6
CONTINUOUS
 62
     7
 10
1041.0
 20
267.25
 30
0.0
 11
1041.0
 21
252.75
 31
0.0
  0
LINE
  8
L-ZISSEN
  6
CONTINUOUS
 62
     7
 10
1054.3
 20
271.0
 30
0.0
 11
1054.3
 21
249.0
 31
0.0
  0
LINE
  8
L-ZISSEN
 10
1306.7
 20
181.0
 30
0.0
 11
1319.7
 21
181.0
 31
0.0
  0
LINE
  8
L-ZISSEN
  6
CONTINUOUS
 62
     7
 10
1319.7
 20
179.0
 30
0.0
 11
1325.7
 21
179.0
 31
0.0
  0
LINE
  8
L-ZISSEN
  6
CONTINUOUS
 62
     7
 10
1325.7
 20
177.25
 30
0.0
 11
1333.0
 21
177.25
 31
0.0
  0
LINE
  8
L-ZISSEN
 10
1306.7
 20
159.0
 30
0.0
 11
1319.7
 21
159.0
 31
0.0
  0
LINE
  8
L-ZISSEN
  6
CONTINUOUS
 62
     7
 10
1325.7
 20
179.0
 30
0.0
 11
1325.7
 21
161.0
 31
0.0
  0
LINE
  8
L-ZISSEN
  6
CONTINUOUS
 62
     7
 10
1319.7
 20
161.0
 30
0.0
 11
1325.7
 21
161.0
 31
0.0
  0
LINE
  8
L-ZISSEN
  6
CONTINUOUS
 62
     7
 10
1325.7
 20
162.75
 30
0.0
 11
1333.0
 21
162.75
 31
0.0
  0
LINE
  8
L-ZISSEN
  6
CONTINUOUS
 62
     7
 10
1333.0
 20
177.25
 30
0.0
 11
1333.0
 21
162.75
 31
0.0
  0
LINE
  8
L-ZISSEN
  6
CONTINUOUS
 62
     7
 10
1319.7
 20
181.0
 30
0.0
 11
1319.7
 21
159.0
 31
0.0
  0
LINE
  8
L-ZISSEN
  6
CONTINUOUS
 62
     7
 10
1054.3
 20
181.0
 30
0.0
 11
1054.3
 21
159.0
 31
0.0
  0
LINE
  8
L-ZISSEN
  6
CONTINUOUS
 62
     7
 10
1041.0
 20
177.25
 30
0.0
 11
1041.0
 21
162.75
 31
0.0
  0
LINE
  8
L-ZISSEN
  6
CONTINUOUS
 62
     7
 10
1048.3
 20
162.75
 30
0.0
 11
1041.0
 21
162.75
 31
0.0
  0
LINE
  8
L-ZISSEN
  6
CONTINUOUS
 62
     7
 10
1054.3
 20
161.0
 30
0.0
 11
1048.3
 21
161.0
 31
0.0
  0
LINE
  8
L-ZISSEN
  6
CONTINUOUS
 62
     7
 10
1048.3
 20
179.0
 30
0.0
 11
1048.3
 21
161.0
 31
0.0
  0
LINE
  8
L-ZISSEN
 10
1067.3
 20
159.0
 30
0.0
 11
1054.3
 21
159.0
 31
0.0
  0
LINE
  8
L-ZISSEN
  6
CONTINUOUS
 62
     7
 10
1048.3
 20
177.25
 30
0.0
 11
1041.0
 21
177.25
 31
0.0
  0
LINE
  8
L-ZISSEN
  6
CONTINUOUS
 62
     7
 10
1054.3
 20
179.0
 30
0.0
 11
1048.3
 21
179.0
 31
0.0
  0
LINE
  8
L-ZISSEN
 10
1067.3
 20
181.0
 30
0.0
 11
1054.3
 21
181.0
 31
0.0
  0
CIRCLE
  8
L-ZISSEN
 10
1390.0
 20
170.0
 30
0.0
 40
7.25
  0
CIRCLE
  8
L-ZISSEN
 10
1390.0
 20
170.0
 30
0.0
 40
9.0
  0
CIRCLE
  8
L-ZISSEN
 10
1390.0
 20
170.0
 30
0.0
 40
11.0
  0
LINE
  8
L-ZISSEN
  6
CONTINUOUS
 62
     7
 10
1526.0
 20
716.1
 30
0.0
 11
1518.0
 21
716.1
 31
0.0
  0
LINE
  8
L-ZISSEN
 10
1526.0
 20
716.1
 30
0.0
 11
1526.0
 21
709.6
 31
0.0
  0
LINE
  8
L-ZISSEN
 10
1518.0
 20
709.6
 30
0.0
 11
1518.0
 21
716.1
 31
0.0
  0
CIRCLE
  8
L-ZISSEN
 10
1522.0
 20
778.0
 30
0.0
 40
4.0
  0
TEXT
  8
L-ZISSEN
 10
1500.0
 20
820.0
 30
0.0
 40
4.5
  1
MODEL NO. : 36B-*00-2**2
  0
LINE
  8
L-TYUSIN
 10
675.0
 20
1110.0
 30
0.0
 11
675.0
 21
360.0
 31
0.0
  0
CIRCLE
  8
L-ZISSEN
 10
970.0
 20
900.0
 30
0.0
 40
4.49995
  0
CIRCLE
  8
L-ZISSEN
 10
930.0
 20
900.0
 30
0.0
 40
4.49995
  0
CIRCLE
  8
L-ZISSEN
 10
970.0
 20
940.0
 30
0.0
 40
4.49995
  0
CIRCLE
  8
L-ZISSEN
 10
930.0
 20
940.0
 30
0.0
 40
4.49995
  0
CIRCLE
  8
L-ZISSEN
 10
950.0
 20
920.0
 30
0.0
 40
19.0
  0
LINE
  8
L-ZISSEN
 10
924.0
 20
894.0
 30
0.0
 11
976.0
 21
894.0
 31
0.0
  0
LINE
  8
L-ZISSEN
 10
924.0
 20
894.0
 30
0.0
 11
924.0
 21
955.5
 31
0.0
  0
LINE
  8
L-ZISSEN
 10
924.0
 20
946.0
 30
0.0
 11
976.0
 21
946.0
 31
0.0
  0
LINE
  8
L-ZISSEN
 10
922.0
 20
928.0
 30
0.0
 11
922.0
 21
954.0
 31
0.0
  0
LINE
  8
L-ZISSEN
 10
976.0
 20
955.5
 30
0.0
 11
976.0
 21
894.0
 31
0.0
  0
LINE
  8
L-ZISSEN
 10
922.0
 20
954.0
 30
0.0
 11
978.0
 21
954.0
 31
0.0
  0
LINE
  8
L-ZISSEN
 10
924.0
 20
955.5
 30
0.0
 11
976.0
 21
955.5
 31
0.0
  0
LINE
  8
L-ZISSEN
 10
978.0
 20
928.0
 30
0.0
 11
978.0
 21
954.0
 31
0.0
  0
LINE
  8
L-ZISSEN
  6
CONTINUOUS
 62
     7
 10
924.5
 20
955.5
 30
0.0
 11
924.5
 21
959.1
 31
0.0
  0
LINE
  8
L-ZISSEN
  6
CONTINUOUS
 62
     7
 10
931.5
 20
955.5
 30
0.0
 11
931.5
 21
959.1
 31
0.0
  0
LINE
  8
L-ZISSEN
  6
CONTINUOUS
 62
     7
 10
931.5
 20
959.1
 30
0.0
 11
924.5
 21
959.1
 31
0.0
  0
LINE
  8
L-ZISSEN
 10
922.0
 20
928.0
 30
0.0
 11
924.0
 21
928.0
 31
0.0
  0
LINE
  8
L-ZISSEN
 10
976.0
 20
928.0
 30
0.0
 11
978.0
 21
928.0
 31
0.0
  0
LINE
  8
L-ZISSEN
  6
CONTINUOUS
 62
     7
 10
968.5
 20
959.1
 30
0.0
 11
975.5
 21
959.1
 31
0.0
  0
LINE
  8
L-ZISSEN
  6
CONTINUOUS
 62
     7
 10
968.5
 20
955.5
 30
0.0
 11
968.5
 21
959.1
 31
0.0
  0
LINE
  8
L-ZISSEN
  6
CONTINUOUS
 62
     7
 10
975.5
 20
955.5
 30
0.0
 11
975.5
 21
959.1
 31
0.0
  0
CIRCLE
  8
L-ZISSEN
 10
950.0
 20
920.0
 30
0.0
 40
11.0
  0
LINE
  8
L-ZISSEN
  6
CONTINUOUS
 62
     7
 10
772.5
 20
959.1
 30
0.0
 11
765.5
 21
959.1
 31
0.0
  0
LINE
  8
L-ZISSEN
  6
CONTINUOUS
 62
     7
 10
772.5
 20
955.5
 30
0.0
 11
772.5
 21
959.1
 31
0.0
  0
LINE
  8
L-ZISSEN
  6
CONTINUOUS
 62
     7
 10
765.5
 20
955.5
 30
0.0
 11
765.5
 21
959.1
 31
0.0
  0
LINE
  8
L-ZISSEN
  6
CONTINUOUS
 62
     7
 10
713.6
 20
904.5
 30
0.0
 11
713.6
 21
895.5
 31
0.0
  0
LINE
  8
L-ZISSEN
  6
CONTINUOUS
 62
     7
 10
716.9
 20
895.5
 30
0.0
 11
713.6
 21
895.5
 31
0.0
  0
LINE
  8
L-ZISSEN
  6
CONTINUOUS
 62
     7
 10
716.9
 20
904.5
 30
0.0
 11
713.6
 21
904.5
 31
0.0
  0
LINE
  8
L-ZISSEN
  6
CONTINUOUS
 62
     7
 10
716.9
 20
944.5
 30
0.0
 11
713.6
 21
944.5
 31
0.0
  0
LINE
  8
L-ZISSEN
  6
CONTINUOUS
 62
     7
 10
716.9
 20
935.5
 30
0.0
 11
713.6
 21
935.5
 31
0.0
  0
LINE
  8
L-ZISSEN
  6
CONTINUOUS
 62
     7
 10
713.6
 20
944.5
 30
0.0
 11
713.6
 21
935.5
 31
0.0
  0
LINE
  8
L-ZISSEN
  6
CONTINUOUS
 62
     7
 10
721.5
 20
955.5
 30
0.0
 11
721.5
 21
959.1
 31
0.0
  0
LINE
  8
L-ZISSEN
  6
CONTINUOUS
 62
     7
 10
728.5
 20
955.5
 30
0.0
 11
728.5
 21
959.1
 31
0.0
  0
LINE
  8
L-ZISSEN
  6
CONTINUOUS
 62
     7
 10
728.5
 20
959.1
 30
0.0
 11
721.5
 21
959.1
 31
0.0
  0
LINE
  8
L-ZISSEN
 10
721.0
 20
955.5
 30
0.0
 11
773.0
 21
955.5
 31
0.0
  0
LINE
  8
L-ZISSEN
 10
773.0
 20
946.0
 30
0.0
 11
847.1
 21
946.0
 31
0.0
  0
LINE
  8
L-ZISSEN
 10
716.9
 20
946.0
 30
0.0
 11
721.0
 21
946.0
 31
0.0
  0
LINE
  8
L-ZISSEN
 10
721.0
 20
955.5
 30
0.0
 11
721.0
 21
946.0
 31
0.0
  0
LINE
  8
L-ZISSEN
 10
773.0
 20
955.5
 30
0.0
 11
773.0
 21
946.0
 31
0.0
  0
LINE
  8
L-ZISSEN
 10
739.5
 20
954.0
 30
0.0
 11
739.5
 21
951.618381
 31
0.0
  0
LINE
  8
L-ZISSEN
 10
754.5
 20
954.0
 30
0.0
 11
754.5
 21
951.618381
 31
0.0
  0
CIRCLE
  8
L-ZISSEN
 10
747.0
 20
941.0
 30
0.0
 40
9.3
  0
ARC
  8
L-ZISSEN
 10
747.0
 20
941.0
 30
0.0
 40
13.0
 50
125.234418
 51
54.765582
  0
LINE
  8
L-ZISSEN
 10
773.0
 20
954.0
 30
0.0
 11
721.0
 21
954.0
 31
0.0
  0
LINE
  8
L-ZISSEN
 10
775.1
 20
946.0
 30
0.0
 11
775.1
 21
894.0
 31
0.0
  0
LINE
  8
L-ZISSEN
 10
718.9
 20
946.0
 30
0.0
 11
718.9
 21
894.0
 31
0.0
  0
LINE
  8
L-ZISSEN
 10
716.9
 20
946.0
 30
0.0
 11
716.9
 21
894.0
 31
0.0
  0
LINE
  8
L-ZISSEN
 10
716.9
 20
894.0
 30
0.0
 11
847.1
 21
894.0
 31
0.0
  0
CIRCLE
  8
L-ZISSEN
 10
152.0
 20
478.0
 30
0.0
 40
3.5
  0
CIRCLE
  8
L-ZISSEN
 10
152.0
 20
522.0
 30
0.0
 40
3.5
  0
CIRCLE
  8
L-ZISSEN
 10
108.0
 20
522.0
 30
0.0
 40
3.5
  0
CIRCLE
  8
L-ZISSEN
 10
108.0
 20
478.0
 30
0.0
 40
3.5
  0
CIRCLE
  8
L-ZISSEN
 10
725.0
 20
988.0
 30
0.0
 40
3.5
  0
CIRCLE
  8
L-ZISSEN
 10
725.0
 20
1032.0
 30
0.0
 40
3.5
  0
CIRCLE
  8
L-ZISSEN
 10
769.0
 20
1032.0
 30
0.0
 40
3.5
  0
CIRCLE
  8
L-ZISSEN
 10
769.0
 20
988.0
 30
0.0
 40
3.5
  0
LINE
  8
L-ZISSEN
 10
773.0
 20
984.0
 30
0.0
 11
773.0
 21
1036.0
 31
0.0
  0
LINE
  8
L-ZISSEN
 10
721.0
 20
984.0
 30
0.0
 11
721.0
 21
1036.0
 31
0.0
  0
LINE
  8
L-ZISSEN
 10
847.1
 20
984.0
 30
0.0
 11
716.9
 21
984.0
 31
0.0
  0
LINE
  8
L-ZISSEN
 10
847.1
 20
1036.0
 30
0.0
 11
716.9
 21
1036.0
 31
0.0
  0
LINE
  8
L-ZISSEN
 10
775.1
 20
984.0
 30
0.0
 11
775.1
 21
1036.0
 31
0.0
  0
LINE
  8
L-ZISSEN
  6
CONTINUOUS
 62
     7
 10
713.6
 20
994.5
 30
0.0
 11
713.6
 21
985.5
 31
0.0
  0
LINE
  8
L-ZISSEN
  6
CONTINUOUS
 62
     7
 10
716.9
 20
985.5
 30
0.0
 11
713.6
 21
985.5
 31
0.0
  0
LINE
  8
L-ZISSEN
  6
CONTINUOUS
 62
     7
 10
716.9
 20
994.5
 30
0.0
 11
713.6
 21
994.5
 31
0.0
  0
LINE
  8
L-ZISSEN
  6
CONTINUOUS
 62
     7
 10
716.9
 20
1034.5
 30
0.0
 11
713.6
 21
1034.5
 31
0.0
  0
LINE
  8
L-ZISSEN
  6
CONTINUOUS
 62
     7
 10
716.9
 20
1025.5
 30
0.0
 11
713.6
 21
1025.5
 31
0.0
  0
LINE
  8
L-ZISSEN
  6
CONTINUOUS
 62
     7
 10
713.6
 20
1034.5
 30
0.0
 11
713.6
 21
1025.5
 31
0.0
  0
LINE
  8
L-ZISSEN
  6
CONTINUOUS
 62
     7
 10
716.9
 20
1036.0
 30
0.0
 11
716.9
 21
984.0
 31
0.0
  0
LINE
  8
L-ZISSEN
  6
CONTINUOUS
 62
     7
 10
718.9
 20
984.0
 30
0.0
 11
718.9
 21
1036.0
 31
0.0
  0
LINE
  8
L-ZISSEN
 10
734.0
 20
984.0
 30
0.0
 11
734.0
 21
982.0
 31
0.0
  0
LINE
  8
L-ZISSEN
 10
734.0
 20
1038.0
 30
0.0
 11
734.0
 21
1036.0
 31
0.0
  0
LINE
  8
L-ZISSEN
 10
760.0
 20
1038.0
 30
0.0
 11
760.0
 21
1036.0
 31
0.0
  0
LINE
  8
L-ZISSEN
 10
760.0
 20
1038.0
 30
0.0
 11
734.0
 21
1038.0
 31
0.0
  0
LINE
  8
L-ZISSEN
 10
760.0
 20
984.0
 30
0.0
 11
760.0
 21
982.0
 31
0.0
  0
LINE
  8
L-ZISSEN
 10
760.0
 20
982.0
 30
0.0
 11
734.0
 21
982.0
 31
0.0
  0
LINE
  8
L-ZISSEN
 10
760.0
 20
732.0
 30
0.0
 11
734.0
 21
732.0
 31
0.0
  0
LINE
  8
L-ZISSEN
 10
760.0
 20
734.0
 30
0.0
 11
760.0
 21
732.0
 31
0.0
  0
LINE
  8
L-ZISSEN
 10
760.0
 20
788.0
 30
0.0
 11
734.0
 21
788.0
 31
0.0
  0
LINE
  8
L-ZISSEN
 10
760.0
 20
788.0
 30
0.0
 11
760.0
 21
786.0
 31
0.0
  0
LINE
  8
L-ZISSEN
 10
734.0
 20
788.0
 30
0.0
 11
734.0
 21
786.0
 31
0.0
  0
LINE
  8
L-ZISSEN
 10
734.0
 20
734.0
 30
0.0
 11
734.0
 21
732.0
 31
0.0
  0
LINE
  8
L-ZISSEN
  6
CONTINUOUS
 62
     7
 10
718.9
 20
734.0
 30
0.0
 11
718.9
 21
786.0
 31
0.0
  0
LINE
  8
L-ZISSEN
  6
CONTINUOUS
 62
     7
 10
716.9
 20
786.0
 30
0.0
 11
716.9
 21
734.0
 31
0.0
  0
LINE
  8
L-ZISSEN
  6
CONTINUOUS
 62
     7
 10
713.6
 20
784.5
 30
0.0
 11
713.6
 21
775.5
 31
0.0
  0
LINE
  8
L-ZISSEN
  6
CONTINUOUS
 62
     7
 10
716.9
 20
775.5
 30
0.0
 11
713.6
 21
775.5
 31
0.0
  0
LINE
  8
L-ZISSEN
  6
CONTINUOUS
 62
     7
 10
716.9
 20
784.5
 30
0.0
 11
713.6
 21
784.5
 31
0.0
  0
LINE
  8
L-ZISSEN
  6
CONTINUOUS
 62
     7
 10
716.9
 20
744.5
 30
0.0
 11
713.6
 21
744.5
 31
0.0
  0
LINE
  8
L-ZISSEN
  6
CONTINUOUS
 62
     7
 10
716.9
 20
735.5
 30
0.0
 11
713.6
 21
735.5
 31
0.0
  0
LINE
  8
L-ZISSEN
  6
CONTINUOUS
 62
     7
 10
713.6
 20
744.5
 30
0.0
 11
713.6
 21
735.5
 31
0.0
  0
LINE
  8
L-ZISSEN
  6
CONTINUOUS
 62
     7
 10
775.1
 20
734.0
 30
0.0
 11
775.1
 21
786.0
 31
0.0
  0
LINE
  8
L-ZISSEN
  6
CONTINUOUS
 62
     7
 10
785.1
 20
786.0
 30
0.0
 11
831.1
 21
784.393644
 31
0.0
  0
LINE
  8
L-ZISSEN
  6
CONTINUOUS
 62
     7
 10
831.1
 20
735.606356
 30
0.0
 11
831.1
 21
784.393644
 31
0.0
  0
LINE
  8
L-ZISSEN
  6
CONTINUOUS
 62
     7
 10
785.1
 20
734.0
 30
0.0
 11
831.1
 21
735.606356
 31
0.0
  0
LINE
  8
L-ZISSEN
 10
785.1
 20
786.0
 30
0.0
 11
716.9
 21
786.0
 31
0.0
  0
LINE
  8
L-ZISSEN
 10
785.1
 20
734.0
 30
0.0
 11
716.9
 21
734.0
 31
0.0
  0
LINE
  8
L-ZISSEN
 10
721.0
 20
734.0
 30
0.0
 11
721.0
 21
786.0
 31
0.0
  0
LINE
  8
L-ZISSEN
 10
773.0
 20
734.0
 30
0.0
 11
773.0
 21
786.0
 31
0.0
  0
CIRCLE
  8
L-ZISSEN
 10
769.0
 20
738.0
 30
0.0
 40
3.5
  0
CIRCLE
  8
L-ZISSEN
 10
769.0
 20
782.0
 30
0.0
 40
3.5
  0
CIRCLE
  8
L-ZISSEN
 10
725.0
 20
782.0
 30
0.0
 40
3.5
  0
CIRCLE
  8
L-ZISSEN
 10
725.0
 20
738.0
 30
0.0
 40
3.5
  0
LINE
  8
L-ZISSEN
 10
716.9
 20
644.0
 30
0.0
 11
785.1
 21
644.0
 31
0.0
  0
LINE
  8
L-ZISSEN
 10
716.9
 20
696.0
 30
0.0
 11
716.9
 21
644.0
 31
0.0
  0
LINE
  8
L-ZISSEN
 10
718.9
 20
696.0
 30
0.0
 11
718.9
 21
644.0
 31
0.0
  0
LINE
  8
L-ZISSEN
  6
CONTINUOUS
 62
     7
 10
785.1
 20
644.0
 30
0.0
 11
831.1
 21
645.606356
 31
0.0
  0
LINE
  8
L-ZISSEN
 10
775.1
 20
696.0
 30
0.0
 11
775.1
 21
644.0
 31
0.0
  0
LINE
  8
L-ZISSEN
 10
773.0
 20
704.0
 30
0.0
 11
721.0
 21
704.0
 31
0.0
  0
ARC
  8
L-ZISSEN
 10
747.0
 20
691.0
 30
0.0
 40
13.0
 50
125.234418
 51
54.765582
  0
CIRCLE
  8
L-ZISSEN
 10
747.0
 20
691.0
 30
0.0
 40
9.3
  0
LINE
  8
L-ZISSEN
 10
754.5
 20
704.0
 30
0.0
 11
754.5
 21
701.618381
 31
0.0
  0
LINE
  8
L-ZISSEN
 10
739.5
 20
704.0
 30
0.0
 11
739.5
 21
701.618381
 31
0.0
  0
LINE
  8
L-ZISSEN
 10
773.0
 20
705.5
 30
0.0
 11
773.0
 21
696.0
 31
0.0
  0
LINE
  8
L-ZISSEN
 10
721.0
 20
705.5
 30
0.0
 11
721.0
 21
696.0
 31
0.0
  0
LINE
  8
L-ZISSEN
 10
716.9
 20
696.0
 30
0.0
 11
721.0
 21
696.0
 31
0.0
  0
LINE
  8
L-ZISSEN
 10
773.0
 20
696.0
 30
0.0
 11
785.1
 21
696.0
 31
0.0
  0
LINE
  8
L-ZISSEN
 10
721.0
 20
705.5
 30
0.0
 11
773.0
 21
705.5
 31
0.0
  0
LINE
  8
L-ZISSEN
  6
CONTINUOUS
 62
     7
 10
728.5
 20
709.1
 30
0.0
 11
721.5
 21
709.1
 31
0.0
  0
LINE
  8
L-ZISSEN
  6
CONTINUOUS
 62
     7
 10
728.5
 20
705.5
 30
0.0
 11
728.5
 21
709.1
 31
0.0
  0
LINE
  8
L-ZISSEN
  6
CONTINUOUS
 62
     7
 10
721.5
 20
705.5
 30
0.0
 11
721.5
 21
709.1
 31
0.0
  0
LINE
  8
L-ZISSEN
  6
CONTINUOUS
 62
     7
 10
713.6
 20
694.5
 30
0.0
 11
713.6
 21
685.5
 31
0.0
  0
LINE
  8
L-ZISSEN
  6
CONTINUOUS
 62
     7
 10
716.9
 20
685.5
 30
0.0
 11
713.6
 21
685.5
 31
0.0
  0
LINE
  8
L-ZISSEN
  6
CONTINUOUS
 62
     7
 10
716.9
 20
694.5
 30
0.0
 11
713.6
 21
694.5
 31
0.0
  0
LINE
  8
L-ZISSEN
  6
CONTINUOUS
 62
     7
 10
716.9
 20
654.5
 30
0.0
 11
713.6
 21
654.5
 31
0.0
  0
LINE
  8
L-ZISSEN
  6
CONTINUOUS
 62
     7
 10
716.9
 20
645.5
 30
0.0
 11
713.6
 21
645.5
 31
0.0
  0
LINE
  8
L-ZISSEN
  6
CONTINUOUS
 62
     7
 10
713.6
 20
654.5
 30
0.0
 11
713.6
 21
645.5
 31
0.0
  0
LINE
  8
L-ZISSEN
  6
CONTINUOUS
 62
     7
 10
785.1
 20
696.0
 30
0.0
 11
831.1
 21
694.393644
 31
0.0
  0
LINE
  8
L-ZISSEN
  6
CONTINUOUS
 62
     7
 10
831.1
 20
645.606356
 30
0.0
 11
831.1
 21
694.393644
 31
0.0
  0
LINE
  8
L-ZISSEN
  6
CONTINUOUS
 62
     7
 10
765.5
 20
705.5
 30
0.0
 11
765.5
 21
709.1
 31
0.0
  0
LINE
  8
L-ZISSEN
  6
CONTINUOUS
 62
     7
 10
772.5
 20
705.5
 30
0.0
 11
772.5
 21
709.1
 31
0.0
  0
LINE
  8
L-ZISSEN
  6
CONTINUOUS
 62
     7
 10
772.5
 20
709.1
 30
0.0
 11
765.5
 21
709.1
 31
0.0
  0
LINE
  8
L-ZISSEN
 10
851.74282
 20
895.50005
 30
0.0
 11
847.1
 21
895.50005
 31
0.0
  0
LINE
  8
L-ZISSEN
 10
851.74282
 20
904.49995
 30
0.0
 11
851.74282
 21
895.50005
 31
0.0
  0
LINE
  8
L-ZISSEN
 10
851.74282
 20
904.49995
 30
0.0
 11
847.1
 21
904.49995
 31
0.0
  0
LINE
  8
L-ZISSEN
 10
851.74282
 20
935.50005
 30
0.0
 11
847.1
 21
935.50005
 31
0.0
  0
LINE
  8
L-ZISSEN
 10
851.74282
 20
935.50005
 30
0.0
 11
851.74282
 21
944.49995
 31
0.0
  0
LINE
  8
L-ZISSEN
 10
858.7
 20
931.0
 30
0.0
 11
858.7
 21
909.0
 31
0.0
  0
LINE
  8
L-ZISSEN
 10
858.7
 20
909.0
 30
0.0
 11
857.7
 21
909.0
 31
0.0
  0
LINE
  8
L-ZISSEN
 10
857.7
 20
931.0
 30
0.0
 11
858.7
 21
931.0
 31
0.0
  0
LINE
  8
L-ZISSEN
 10
851.74282
 20
944.49995
 30
0.0
 11
847.1
 21
944.49995
 31
0.0
  0
LINE
  8
L-ZISSEN
 10
851.74282
 20
901.0
 30
0.0
 11
857.7
 21
901.0
 31
0.0
  0
LINE
  8
L-ZISSEN
 10
851.74282
 20
939.0
 30
0.0
 11
857.7
 21
939.0
 31
0.0
  0
LINE
  8
L-ZISSEN
 10
847.1
 20
946.0
 30
0.0
 11
847.1
 21
894.0
 31
0.0
  0
LINE
  8
L-ZISSEN
 10
857.7
 20
939.0
 30
0.0
 11
857.7
 21
901.0
 31
0.0
  0
LINE
  8
L-ZISSEN
 10
857.7
 20
1029.0
 30
0.0
 11
857.7
 21
991.0
 31
0.0
  0
LINE
  8
L-ZISSEN
 10
847.1
 20
1036.0
 30
0.0
 11
847.1
 21
984.0
 31
0.0
  0
LINE
  8
L-ZISSEN
 10
851.74282
 20
1029.0
 30
0.0
 11
857.7
 21
1029.0
 31
0.0
  0
LINE
  8
L-ZISSEN
 10
851.74282
 20
991.0
 30
0.0
 11
857.7
 21
991.0
 31
0.0
  0
LINE
  8
L-ZISSEN
 10
851.74282
 20
1034.49995
 30
0.0
 11
847.1
 21
1034.49995
 31
0.0
  0
LINE
  8
L-ZISSEN
 10
857.7
 20
1021.0
 30
0.0
 11
858.7
 21
1021.0
 31
0.0
  0
LINE
  8
L-ZISSEN
 10
858.7
 20
999.0
 30
0.0
 11
857.7
 21
999.0
 31
0.0
  0
LINE
  8
L-ZISSEN
 10
858.7
 20
1021.0
 30
0.0
 11
858.7
 21
999.0
 31
0.0
  0
LINE
  8
L-ZISSEN
 10
851.74282
 20
1025.50005
 30
0.0
 11
851.74282
 21
1034.49995
 31
0.0
  0
LINE
  8
L-ZISSEN
 10
851.74282
 20
1025.50005
 30
0.0
 11
847.1
 21
1025.50005
 31
0.0
  0
LINE
  8
L-ZISSEN
 10
851.74282
 20
994.49995
 30
0.0
 11
847.1
 21
994.49995
 31
0.0
  0
LINE
  8
L-ZISSEN
 10
851.74282
 20
994.49995
 30
0.0
 11
851.74282
 21
985.50005
 31
0.0
  0
LINE
  8
L-ZISSEN
 10
851.74282
 20
985.50005
 30
0.0
 11
847.1
 21
985.50005
 31
0.0
  0
CIRCLE
  8
L-ZISSEN
 10
950.0
 20
670.0
 30
0.0
 40
11.0
  0
CIRCLE
  8
L-ZISSEN
 10
950.0
 20
670.0
 30
0.0
 40
9.0
  0
CIRCLE
  8
L-ZISSEN
 10
950.0
 20
670.0
 30
0.0
 40
7.25
  0
LINE
  8
L-ZISSEN
  6
CONTINUOUS
 62
     7
 10
975.5
 20
705.5
 30
0.0
 11
975.5
 21
709.1
 31
0.0
  0
LINE
  8
L-ZISSEN
  6
CONTINUOUS
 62
     7
 10
968.5
 20
705.5
 30
0.0
 11
968.5
 21
709.1
 31
0.0
  0
LINE
  8
L-ZISSEN
  6
CONTINUOUS
 62
     7
 10
968.5
 20
709.1
 30
0.0
 11
975.5
 21
709.1
 31
0.0
  0
LINE
  8
L-ZISSEN
 10
976.0
 20
678.0
 30
0.0
 11
978.0
 21
678.0
 31
0.0
  0
LINE
  8
L-ZISSEN
 10
922.0
 20
678.0
 30
0.0
 11
924.0
 21
678.0
 31
0.0
  0
LINE
  8
L-ZISSEN
  6
CONTINUOUS
 62
     7
 10
931.5
 20
709.1
 30
0.0
 11
924.5
 21
709.1
 31
0.0
  0
LINE
  8
L-ZISSEN
  6
CONTINUOUS
 62
     7
 10
931.5
 20
705.5
 30
0.0
 11
931.5
 21
709.1
 31
0.0
  0
LINE
  8
L-ZISSEN
  6
CONTINUOUS
 62
     7
 10
924.5
 20
705.5
 30
0.0
 11
924.5
 21
709.1
 31
0.0
  0
LINE
  8
L-ZISSEN
 10
978.0
 20
678.0
 30
0.0
 11
978.0
 21
704.0
 31
0.0
  0
LINE
  8
L-ZISSEN
 10
924.0
 20
705.5
 30
0.0
 11
976.0
 21
705.5
 31
0.0
  0
LINE
  8
L-ZISSEN
 10
922.0
 20
704.0
 30
0.0
 11
978.0
 21
704.0
 31
0.0
  0
LINE
  8
L-ZISSEN
 10
976.0
 20
705.5
 30
0.0
 11
976.0
 21
644.0
 31
0.0
  0
LINE
  8
L-ZISSEN
 10
922.0
 20
678.0
 30
0.0
 11
922.0
 21
704.0
 31
0.0
  0
LINE
  8
L-ZISSEN
 10
924.0
 20
696.0
 30
0.0
 11
976.0
 21
696.0
 31
0.0
  0
LINE
  8
L-ZISSEN
 10
924.0
 20
644.0
 30
0.0
 11
924.0
 21
705.5
 31
0.0
  0
LINE
  8
L-ZISSEN
 10
924.0
 20
644.0
 30
0.0
 11
976.0
 21
644.0
 31
0.0
  0
LINE
  8
L-ZISSEN
 10
831.1
 20
771.0
 30
0.0
 11
844.1
 21
771.0
 31
0.0
  0
LINE
  8
L-ZISSEN
  6
CONTINUOUS
 62
     7
 10
844.1
 20
769.0
 30
0.0
 11
850.1
 21
769.0
 31
0.0
  0
LINE
  8
L-ZISSEN
  6
CONTINUOUS
 62
     7
 10
850.1
 20
767.25
 30
0.0
 11
857.1
 21
767.25
 31
0.0
  0
LINE
  8
L-ZISSEN
 10
831.1
 20
749.0
 30
0.0
 11
844.1
 21
749.0
 31
0.0
  0
LINE
  8
L-ZISSEN
  6
CONTINUOUS
 62
     7
 10
850.1
 20
769.0
 30
0.0
 11
850.1
 21
751.0
 31
0.0
  0
LINE
  8
L-ZISSEN
  6
CONTINUOUS
 62
     7
 10
844.1
 20
751.0
 30
0.0
 11
850.1
 21
751.0
 31
0.0
  0
LINE
  8
L-ZISSEN
  6
CONTINUOUS
 62
     7
 10
850.1
 20
752.75
 30
0.0
 11
857.1
 21
752.75
 31
0.0
  0
LINE
  8
L-ZISSEN
  6
CONTINUOUS
 62
     7
 10
857.1
 20
767.25
 30
0.0
 11
857.1
 21
752.75
 31
0.0
  0
LINE
  8
L-ZISSEN
  6
CONTINUOUS
 62
     7
 10
844.1
 20
771.0
 30
0.0
 11
844.1
 21
749.0
 31
0.0
  0
LINE
  8
L-ZISSEN
  6
CONTINUOUS
 62
     7
 10
844.1
 20
681.0
 30
0.0
 11
844.1
 21
659.0
 31
0.0
  0
LINE
  8
L-ZISSEN
  6
CONTINUOUS
 62
     7
 10
857.1
 20
677.25
 30
0.0
 11
857.1
 21
662.75
 31
0.0
  0
LINE
  8
L-ZISSEN
  6
CONTINUOUS
 62
     7
 10
850.1
 20
662.75
 30
0.0
 11
857.1
 21
662.75
 31
0.0
  0
LINE
  8
L-ZISSEN
  6
CONTINUOUS
 62
     7
 10
844.1
 20
661.0
 30
0.0
 11
850.1
 21
661.0
 31
0.0
  0
LINE
  8
L-ZISSEN
  6
CONTINUOUS
 62
     7
 10
850.1
 20
679.0
 30
0.0
 11
850.1
 21
661.0
 31
0.0
  0
LINE
  8
L-ZISSEN
 10
831.1
 20
659.0
 30
0.0
 11
844.1
 21
659.0
 31
0.0
  0
LINE
  8
L-ZISSEN
  6
CONTINUOUS
 62
     7
 10
850.1
 20
677.25
 30
0.0
 11
857.1
 21
677.25
 31
0.0
  0
LINE
  8
L-ZISSEN
  6
CONTINUOUS
 62
     7
 10
844.1
 20
679.0
 30
0.0
 11
850.1
 21
679.0
 31
0.0
  0
LINE
  8
L-ZISSEN
 10
831.1
 20
681.0
 30
0.0
 11
844.1
 21
681.0
 31
0.0
  0
LINE
  8
L-ZISSEN
  6
CONTINUOUS
 62
     7
 10
772.5
 20
459.1
 30
0.0
 11
765.5
 21
459.1
 31
0.0
  0
LINE
  8
L-ZISSEN
  6
CONTINUOUS
 62
     7
 10
772.5
 20
455.5
 30
0.0
 11
772.5
 21
459.1
 31
0.0
  0
LINE
  8
L-ZISSEN
  6
CONTINUOUS
 62
     7
 10
765.5
 20
455.5
 30
0.0
 11
765.5
 21
459.1
 31
0.0
  0
LINE
  8
L-ZISSEN
  6
CONTINUOUS
 62
     7
 10
713.6
 20
404.5
 30
0.0
 11
713.6
 21
395.5
 31
0.0
  0
LINE
  8
L-ZISSEN
  6
CONTINUOUS
 62
     7
 10
716.9
 20
395.5
 30
0.0
 11
713.6
 21
395.5
 31
0.0
  0
LINE
  8
L-ZISSEN
  6
CONTINUOUS
 62
     7
 10
716.9
 20
404.5
 30
0.0
 11
713.6
 21
404.5
 31
0.0
  0
LINE
  8
L-ZISSEN
  6
CONTINUOUS
 62
     7
 10
716.9
 20
444.5
 30
0.0
 11
713.6
 21
444.5
 31
0.0
  0
LINE
  8
L-ZISSEN
  6
CONTINUOUS
 62
     7
 10
716.9
 20
435.5
 30
0.0
 11
713.6
 21
435.5
 31
0.0
  0
LINE
  8
L-ZISSEN
  6
CONTINUOUS
 62
     7
 10
713.6
 20
444.5
 30
0.0
 11
713.6
 21
435.5
 31
0.0
  0
LINE
  8
L-ZISSEN
  6
CONTINUOUS
 62
     7
 10
721.5
 20
455.5
 30
0.0
 11
721.5
 21
459.1
 31
0.0
  0
LINE
  8
L-ZISSEN
  6
CONTINUOUS
 62
     7
 10
728.5
 20
455.5
 30
0.0
 11
728.5
 21
459.1
 31
0.0
  0
LINE
  8
L-ZISSEN
  6
CONTINUOUS
 62
     7
 10
728.5
 20
459.1
 30
0.0
 11
721.5
 21
459.1
 31
0.0
  0
LINE
  8
L-ZISSEN
 10
721.0
 20
455.5
 30
0.0
 11
773.0
 21
455.5
 31
0.0
  0
LINE
  8
L-ZISSEN
 10
773.0
 20
446.0
 30
0.0
 11
847.1
 21
446.0
 31
0.0
  0
LINE
  8
L-ZISSEN
 10
716.9
 20
446.0
 30
0.0
 11
721.0
 21
446.0
 31
0.0
  0
LINE
  8
L-ZISSEN
 10
721.0
 20
455.5
 30
0.0
 11
721.0
 21
446.0
 31
0.0
  0
LINE
  8
L-ZISSEN
 10
773.0
 20
455.5
 30
0.0
 11
773.0
 21
446.0
 31
0.0
  0
LINE
  8
L-ZISSEN
 10
739.5
 20
454.0
 30
0.0
 11
739.5
 21
451.618381
 31
0.0
  0
LINE
  8
L-ZISSEN
 10
754.5
 20
454.0
 30
0.0
 11
754.5
 21
451.618381
 31
0.0
  0
CIRCLE
  8
L-ZISSEN
 10
747.0
 20
441.0
 30
0.0
 40
9.3
  0
ARC
  8
L-ZISSEN
 10
747.0
 20
441.0
 30
0.0
 40
13.0
 50
125.234418
 51
54.765582
  0
LINE
  8
L-ZISSEN
 10
773.0
 20
454.0
 30
0.0
 11
721.0
 21
454.0
 31
0.0
  0
LINE
  8
L-ZISSEN
 10
775.1
 20
446.0
 30
0.0
 11
775.1
 21
394.0
 31
0.0
  0
LINE
  8
L-ZISSEN
 10
718.9
 20
446.0
 30
0.0
 11
718.9
 21
394.0
 31
0.0
  0
LINE
  8
L-ZISSEN
 10
716.9
 20
446.0
 30
0.0
 11
716.9
 21
394.0
 31
0.0
  0
LINE
  8
L-ZISSEN
 10
716.9
 20
394.0
 30
0.0
 11
847.1
 21
394.0
 31
0.0
  0
CIRCLE
  8
L-ZISSEN
 10
725.0
 20
488.0
 30
0.0
 40
3.5
  0
CIRCLE
  8
L-ZISSEN
 10
725.0
 20
532.0
 30
0.0
 40
3.5
  0
CIRCLE
  8
L-ZISSEN
 10
769.0
 20
532.0
 30
0.0
 40
3.5
  0
CIRCLE
  8
L-ZISSEN
 10
769.0
 20
488.0
 30
0.0
 40
3.5
  0
LINE
  8
L-ZISSEN
 10
773.0
 20
484.0
 30
0.0
 11
773.0
 21
536.0
 31
0.0
  0
LINE
  8
L-ZISSEN
 10
721.0
 20
484.0
 30
0.0
 11
721.0
 21
536.0
 31
0.0
  0
LINE
  8
L-ZISSEN
 10
847.1
 20
484.0
 30
0.0
 11
716.9
 21
484.0
 31
0.0
  0
LINE
  8
L-ZISSEN
 10
847.1
 20
536.0
 30
0.0
 11
716.9
 21
536.0
 31
0.0
  0
LINE
  8
L-ZISSEN
 10
775.1
 20
484.0
 30
0.0
 11
775.1
 21
536.0
 31
0.0
  0
LINE
  8
L-ZISSEN
  6
CONTINUOUS
 62
     7
 10
713.6
 20
494.5
 30
0.0
 11
713.6
 21
485.5
 31
0.0
  0
LINE
  8
L-ZISSEN
  6
CONTINUOUS
 62
     7
 10
716.9
 20
485.5
 30
0.0
 11
713.6
 21
485.5
 31
0.0
  0
LINE
  8
L-ZISSEN
  6
CONTINUOUS
 62
     7
 10
716.9
 20
494.5
 30
0.0
 11
713.6
 21
494.5
 31
0.0
  0
LINE
  8
L-ZISSEN
  6
CONTINUOUS
 62
     7
 10
716.9
 20
534.5
 30
0.0
 11
713.6
 21
534.5
 31
0.0
  0
LINE
  8
L-ZISSEN
  6
CONTINUOUS
 62
     7
 10
716.9
 20
525.5
 30
0.0
 11
713.6
 21
525.5
 31
0.0
  0
LINE
  8
L-ZISSEN
  6
CONTINUOUS
 62
     7
 10
713.6
 20
534.5
 30
0.0
 11
713.6
 21
525.5
 31
0.0
  0
LINE
  8
L-ZISSEN
  6
CONTINUOUS
 62
     7
 10
716.9
 20
536.0
 30
0.0
 11
716.9
 21
484.0
 31
0.0
  0
LINE
  8
L-ZISSEN
  6
CONTINUOUS
 62
     7
 10
718.9
 20
484.0
 30
0.0
 11
718.9
 21
536.0
 31
0.0
  0
LINE
  8
L-ZISSEN
 10
734.0
 20
484.0
 30
0.0
 11
734.0
 21
482.0
 31
0.0
  0
LINE
  8
L-ZISSEN
 10
734.0
 20
538.0
 30
0.0
 11
734.0
 21
536.0
 31
0.0
  0
LINE
  8
L-ZISSEN
 10
760.0
 20
538.0
 30
0.0
 11
760.0
 21
536.0
 31
0.0
  0
LINE
  8
L-ZISSEN
 10
760.0
 20
538.0
 30
0.0
 11
734.0
 21
538.0
 31
0.0
  0
LINE
  8
L-ZISSEN
 10
760.0
 20
484.0
 30
0.0
 11
760.0
 21
482.0
 31
0.0
  0
LINE
  8
L-ZISSEN
 10
760.0
 20
482.0
 30
0.0
 11
734.0
 21
482.0
 31
0.0
  0
CIRCLE
  8
L-ZISSEN
 10
950.0
 20
420.0
 30
0.0
 40
11.0
  0
CIRCLE
  8
L-ZISSEN
 10
950.0
 20
420.0
 30
0.0
 40
9.0
  0
CIRCLE
  8
L-ZISSEN
 10
950.0
 20
420.0
 30
0.0
 40
7.25
  0
LINE
  8
L-ZISSEN
  6
CONTINUOUS
 62
     7
 10
975.5
 20
455.5
 30
0.0
 11
975.5
 21
459.1
 31
0.0
  0
LINE
  8
L-ZISSEN
  6
CONTINUOUS
 62
     7
 10
968.5
 20
455.5
 30
0.0
 11
968.5
 21
459.1
 31
0.0
  0
LINE
  8
L-ZISSEN
  6
CONTINUOUS
 62
     7
 10
968.5
 20
459.1
 30
0.0
 11
975.5
 21
459.1
 31
0.0
  0
LINE
  8
L-ZISSEN
 10
976.0
 20
428.0
 30
0.0
 11
978.0
 21
428.0
 31
0.0
  0
LINE
  8
L-ZISSEN
 10
922.0
 20
428.0
 30
0.0
 11
924.0
 21
428.0
 31
0.0
  0
LINE
  8
L-ZISSEN
  6
CONTINUOUS
 62
     7
 10
931.5
 20
459.1
 30
0.0
 11
924.5
 21
459.1
 31
0.0
  0
LINE
  8
L-ZISSEN
  6
CONTINUOUS
 62
     7
 10
931.5
 20
455.5
 30
0.0
 11
931.5
 21
459.1
 31
0.0
  0
LINE
  8
L-ZISSEN
  6
CONTINUOUS
 62
     7
 10
924.5
 20
455.5
 30
0.0
 11
924.5
 21
459.1
 31
0.0
  0
LINE
  8
L-ZISSEN
 10
978.0
 20
428.0
 30
0.0
 11
978.0
 21
454.0
 31
0.0
  0
LINE
  8
L-ZISSEN
 10
924.0
 20
455.5
 30
0.0
 11
976.0
 21
455.5
 31
0.0
  0
LINE
  8
L-ZISSEN
 10
922.0
 20
454.0
 30
0.0
 11
978.0
 21
454.0
 31
0.0
  0
LINE
  8
L-ZISSEN
 10
976.0
 20
455.5
 30
0.0
 11
976.0
 21
394.0
 31
0.0
  0
LINE
  8
L-ZISSEN
 10
922.0
 20
428.0
 30
0.0
 11
922.0
 21
454.0
 31
0.0
  0
LINE
  8
L-ZISSEN
 10
924.0
 20
446.0
 30
0.0
 11
976.0
 21
446.0
 31
0.0
  0
LINE
  8
L-ZISSEN
 10
924.0
 20
394.0
 30
0.0
 11
924.0
 21
455.5
 31
0.0
  0
LINE
  8
L-ZISSEN
 10
924.0
 20
394.0
 30
0.0
 11
976.0
 21
394.0
 31
0.0
  0
CIRCLE
  8
L-ZISSEN
 10
950.0
 20
420.0
 30
0.0
 40
19.0
  0
CIRCLE
  8
L-ZISSEN
 10
930.0
 20
440.0
 30
0.0
 40
4.49995
  0
CIRCLE
  8
L-ZISSEN
 10
970.0
 20
440.0
 30
0.0
 40
4.49995
  0
CIRCLE
  8
L-ZISSEN
 10
930.0
 20
400.0
 30
0.0
 40
4.49995
  0
CIRCLE
  8
L-ZISSEN
 10
970.0
 20
400.0
 30
0.0
 40
4.49995
  0
LINE
  8
L-ZISSEN
  6
CONTINUOUS
 62
     7
 10
870.7
 20
431.0
 30
0.0
 11
870.7
 21
409.0
 31
0.0
  0
LINE
  8
L-ZISSEN
  6
CONTINUOUS
 62
     7
 10
884.0
 20
427.25
 30
0.0
 11
884.0
 21
412.75
 31
0.0
  0
LINE
  8
L-ZISSEN
  6
CONTINUOUS
 62
     7
 10
876.7
 20
412.75
 30
0.0
 11
884.0
 21
412.75
 31
0.0
  0
LINE
  8
L-ZISSEN
  6
CONTINUOUS
 62
     7
 10
870.7
 20
411.0
 30
0.0
 11
876.7
 21
411.0
 31
0.0
  0
LINE
  8
L-ZISSEN
  6
CONTINUOUS
 62
     7
 10
876.7
 20
429.0
 30
0.0
 11
876.7
 21
411.0
 31
0.0
  0
LINE
  8
L-ZISSEN
 10
857.7
 20
409.0
 30
0.0
 11
870.7
 21
409.0
 31
0.0
  0
LINE
  8
L-ZISSEN
  6
CONTINUOUS
 62
     7
 10
876.7
 20
427.25
 30
0.0
 11
884.0
 21
427.25
 31
0.0
  0
LINE
  8
L-ZISSEN
  6
CONTINUOUS
 62
     7
 10
870.7
 20
429.0
 30
0.0
 11
876.7
 21
429.0
 31
0.0
  0
LINE
  8
L-ZISSEN
 10
857.7
 20
431.0
 30
0.0
 11
870.7
 21
431.0
 31
0.0
  0
LINE
  8
L-ZISSEN
 10
857.7
 20
521.0
 30
0.0
 11
870.7
 21
521.0
 31
0.0
  0
LINE
  8
L-ZISSEN
  6
CONTINUOUS
 62
     7
 10
870.7
 20
519.0
 30
0.0
 11
876.7
 21
519.0
 31
0.0
  0
LINE
  8
L-ZISSEN
  6
CONTINUOUS
 62
     7
 10
876.7
 20
517.25
 30
0.0
 11
884.0
 21
517.25
 31
0.0
  0
LINE
  8
L-ZISSEN
 10
857.7
 20
499.0
 30
0.0
 11
870.7
 21
499.0
 31
0.0
  0
LINE
  8
L-ZISSEN
  6
CONTINUOUS
 62
     7
 10
876.7
 20
519.0
 30
0.0
 11
876.7
 21
501.0
 31
0.0
  0
LINE
  8
L-ZISSEN
  6
CONTINUOUS
 62
     7
 10
870.7
 20
501.0
 30
0.0
 11
876.7
 21
501.0
 31
0.0
  0
LINE
  8
L-ZISSEN
  6
CONTINUOUS
 62
     7
 10
876.7
 20
502.75
 30
0.0
 11
884.0
 21
502.75
 31
0.0
  0
LINE
  8
L-ZISSEN
  6
CONTINUOUS
 62
     7
 10
884.0
 20
517.25
 30
0.0
 11
884.0
 21
502.75
 31
0.0
  0
LINE
  8
L-ZISSEN
  6
CONTINUOUS
 62
     7
 10
870.7
 20
521.0
 30
0.0
 11
870.7
 21
499.0
 31
0.0
  0
LINE
  8
L-ZISSEN
 10
857.7
 20
439.0
 30
0.0
 11
857.7
 21
401.0
 31
0.0
  0
LINE
  8
L-ZISSEN
 10
847.1
 20
446.0
 30
0.0
 11
847.1
 21
394.0
 31
0.0
  0
LINE
  8
L-ZISSEN
 10
851.74282
 20
439.0
 30
0.0
 11
857.7
 21
439.0
 31
0.0
  0
LINE
  8
L-ZISSEN
 10
851.74282
 20
401.0
 30
0.0
 11
857.7
 21
401.0
 31
0.0
  0
LINE
  8
L-ZISSEN
 10
851.74282
 20
444.49995
 30
0.0
 11
847.1
 21
444.49995
 31
0.0
  0
LINE
  8
L-ZISSEN
 10
851.74282
 20
435.50005
 30
0.0
 11
851.74282
 21
444.49995
 31
0.0
  0
LINE
  8
L-ZISSEN
 10
851.74282
 20
435.50005
 30
0.0
 11
847.1
 21
435.50005
 31
0.0
  0
LINE
  8
L-ZISSEN
 10
851.74282
 20
404.49995
 30
0.0
 11
847.1
 21
404.49995
 31
0.0
  0
LINE
  8
L-ZISSEN
 10
851.74282
 20
404.49995
 30
0.0
 11
851.74282
 21
395.50005
 31
0.0
  0
LINE
  8
L-ZISSEN
 10
851.74282
 20
395.50005
 30
0.0
 11
847.1
 21
395.50005
 31
0.0
  0
LINE
  8
L-ZISSEN
 10
851.74282
 20
485.50005
 30
0.0
 11
847.1
 21
485.50005
 31
0.0
  0
LINE
  8
L-ZISSEN
 10
851.74282
 20
494.49995
 30
0.0
 11
851.74282
 21
485.50005
 31
0.0
  0
LINE
  8
L-ZISSEN
 10
851.74282
 20
494.49995
 30
0.0
 11
847.1
 21
494.49995
 31
0.0
  0
LINE
  8
L-ZISSEN
 10
851.74282
 20
525.50005
 30
0.0
 11
847.1
 21
525.50005
 31
0.0
  0
LINE
  8
L-ZISSEN
 10
851.74282
 20
525.50005
 30
0.0
 11
851.74282
 21
534.49995
 31
0.0
  0
LINE
  8
L-ZISSEN
 10
851.74282
 20
534.49995
 30
0.0
 11
847.1
 21
534.49995
 31
0.0
  0
LINE
  8
L-ZISSEN
 10
851.74282
 20
491.0
 30
0.0
 11
857.7
 21
491.0
 31
0.0
  0
LINE
  8
L-ZISSEN
 10
851.74282
 20
529.0
 30
0.0
 11
857.7
 21
529.0
 31
0.0
  0
LINE
  8
L-ZISSEN
 10
847.1
 20
536.0
 30
0.0
 11
847.1
 21
484.0
 31
0.0
  0
LINE
  8
L-ZISSEN
 10
857.7
 20
529.0
 30
0.0
 11
857.7
 21
491.0
 31
0.0
  0
LINE
  8
L-ZISSEN
 10
1563.0
 20
954.0
 30
0.0
 11
1511.0
 21
954.0
 31
0.0
  0
LINE
  8
L-ZISSEN
 10
1563.0
 20
959.6
 30
0.0
 11
1563.0
 21
946.0
 31
0.0
  0
LINE
  8
L-ZISSEN
 10
1511.0
 20
959.6
 30
0.0
 11
1511.0
 21
946.0
 31
0.0
  0
LINE
  8
L-ZISSEN
 10
1511.0
 20
959.6
 30
0.0
 11
1563.0
 21
959.6
 31
0.0
  0
LINE
  8
L-ZISSEN
  6
CONTINUOUS
 62
     7
 10
1518.5
 20
963.2
 30
0.0
 11
1511.5
 21
963.2
 31
0.0
  0
LINE
  8
L-ZISSEN
  6
CONTINUOUS
 62
     7
 10
1518.5
 20
959.6
 30
0.0
 11
1518.5
 21
963.2
 31
0.0
  0
LINE
  8
L-ZISSEN
  6
CONTINUOUS
 62
     7
 10
1511.5
 20
959.6
 30
0.0
 11
1511.5
 21
963.2
 31
0.0
  0
LINE
  8
L-ZISSEN
  6
CONTINUOUS
 62
     7
 10
1555.5
 20
959.6
 30
0.0
 11
1555.5
 21
963.2
 31
0.0
  0
LINE
  8
L-ZISSEN
  6
CONTINUOUS
 62
     7
 10
1562.5
 20
959.6
 30
0.0
 11
1562.5
 21
963.2
 31
0.0
  0
LINE
  8
L-ZISSEN
  6
CONTINUOUS
 62
     7
 10
1562.5
 20
963.2
 30
0.0
 11
1555.5
 21
963.2
 31
0.0
  0
LINE
  8
L-ZISSEN
 10
1654.0
 20
959.6
 30
0.0
 11
1654.0
 21
966.1
 31
0.0
  0
LINE
  8
L-ZISSEN
 10
1662.0
 20
966.1
 30
0.0
 11
1662.0
 21
963.2
 31
0.0
  0
LINE
  8
L-ZISSEN
  6
CONTINUOUS
 62
     7
 10
1662.0
 20
966.1
 30
0.0
 11
1654.0
 21
966.1
 31
0.0
  0
LINE
  8
L-ZISSEN
  6
CONTINUOUS
 62
     7
 10
1665.5
 20
959.6
 30
0.0
 11
1665.5
 21
963.2
 31
0.0
  0
LINE
  8
L-ZISSEN
  6
CONTINUOUS
 62
     7
 10
1658.5
 20
959.6
 30
0.0
 11
1658.5
 21
963.2
 31
0.0
  0
LINE
  8
L-ZISSEN
  6
CONTINUOUS
 62
     7
 10
1658.5
 20
963.2
 30
0.0
 11
1665.5
 21
963.2
 31
0.0
  0
LINE
  8
L-ZISSEN
  6
CONTINUOUS
 62
     7
 10
1621.5
 20
963.2
 30
0.0
 11
1614.5
 21
963.2
 31
0.0
  0
LINE
  8
L-ZISSEN
  6
CONTINUOUS
 62
     7
 10
1621.5
 20
959.6
 30
0.0
 11
1621.5
 21
963.2
 31
0.0
  0
LINE
  8
L-ZISSEN
  6
CONTINUOUS
 62
     7
 10
1614.5
 20
959.6
 30
0.0
 11
1614.5
 21
963.2
 31
0.0
  0
LINE
  8
L-ZISSEN
 10
1614.0
 20
959.6
 30
0.0
 11
1666.0
 21
959.6
 31
0.0
  0
LINE
  8
L-ZISSEN
 10
1612.0
 20
954.0
 30
0.0
 11
1668.0
 21
954.0
 31
0.0
  0
LINE
  8
L-ZISSEN
 10
1666.0
 20
959.6
 30
0.0
 11
1666.0
 21
894.0
 31
0.0
  0
LINE
  8
L-ZISSEN
 10
1614.0
 20
894.0
 30
0.0
 11
1614.0
 21
959.6
 31
0.0
  0
TEXT
  8
L-ZISSEN
 10
1500.0
 20
1080.0
 30
0.0
 40
4.5
  1
PILOT LAMP
  0
CIRCLE
  8
L-ZISSEN
 10
1552.0
 20
1028.0
 30
0.0
 40
4.0
  0
LINE
  8
L-ZISSEN
  6
CONTINUOUS
 62
     7
 10
1548.0
 20
966.1
 30
0.0
 11
1556.0
 21
966.1
 31
0.0
  0
LINE
  8
L-ZISSEN
 10
1548.0
 20
966.1
 30
0.0
 11
1548.0
 21
959.6
 31
0.0
  0
LINE
  8
L-ZISSEN
 10
1556.0
 20
963.2
 30
0.0
 11
1556.0
 21
966.1
 31
0.0
  0
TEXT
  8
L-ZISSEN
 10
715.0
 20
1080.0
 30
0.0
 40
4.5
  1
PILOT VALVE
  0
TEXT
  8
L-ZISSEN
 10
820.0
 20
1070.0
 30
0.0
 40
4.5
  1
DC-24V
  0
TEXT
  8
L-ZISSEN
 10
820.0
 20
1060.0
 30
0.0
 40
4.5
  1
DC-100V
  0
TEXT
  8
L-ZISSEN
 10
1070.0
 20
830.0
 30
0.0
 40
4.5
  1
PILOT VALVE
  0
TEXT
  8
L-ZISSEN
 10
1070.0
 20
820.0
 30
0.0
 40
4.5
  1
MODEL NO. : 36B-*00-2*B0
  0
TEXT
  8
L-ZISSEN
 10
1175.0
 20
825.0
 30
0.0
 40
4.5
  1
DC-24V
  0
TEXT
  8
L-ZISSEN
 10
1175.0
 20
815.0
 30
0.0
 40
4.5
  1
DC-100V
  0
TEXT
  8
L-ZISSEN
 10
1070.0
 20
570.0
 30
0.0
 40
4.5
  1
MODEL NO. : 36B-*00-2*R0
  0
TEXT
  8
L-ZISSEN
 10
1070.0
 20
580.0
 30
0.0
 40
4.5
  1
PILOT VALVE
  0
TEXT
  8
L-ZISSEN
 10
1175.0
 20
575.0
 30
0.0
 40
4.5
  1
AC-100V
  0
TEXT
  8
L-ZISSEN
 10
1175.0
 20
565.0
 30
0.0
 40
4.5
  1
AC-200V
  0
TEXT
  8
L-ZISSEN
 10
798.0
 20
813.0
 30
0.0
 40
4.5
  1
1
  0
TEXT
  8
L-ZISSEN
 10
798.0
 20
819.0
 30
0.0
 40
4.5
  1
0
  0
TEXT
  8
L-ZISSEN
 10
715.0
 20
830.0
 30
0.0
 40
4.5
  1
PILOT VALVE
  0
TEXT
  8
L-ZISSEN
 10
715.0
 20
815.0
 30
0.0
 40
4.5
  1
MODEL NO. : 36B-*00- *R0
  0
TEXT
  8
L-ZISSEN
 10
820.0
 20
820.0
 30
0.0
 40
4.5
  1
AC-100V
  0
TEXT
  8
L-ZISSEN
 10
820.0
 20
810.0
 30
0.0
 40
4.5
  1
AC-200V
  0
TEXT
  8
L-ZISSEN
 10
715.0
 20
1065.0
 30
0.0
 40
4.5
  1
MODEL NO. : 36B-*00- *B0
  0
TEXT
  8
L-ZISSEN
 10
798.0
 20
1069.0
 30
0.0
 40
4.5
  1
0
  0
TEXT
  8
L-ZISSEN
 10
798.0
 20
1063.0
 30
0.0
 40
4.5
  1
1
  0
TEXT
  8
L-ZISSEN
 10
798.0
 20
568.0
 30
0.0
 40
4.5
  1
1
  0
TEXT
  8
L-ZISSEN
 10
798.0
 20
574.0
 30
0.0
 40
4.5
  1
0
  0
TEXT
  8
L-ZISSEN
 10
715.0
 20
570.0
 30
0.0
 40
4.5
  1
MODEL NO. : 36B-*00- *R0
  0
TEXT
  8
L-ZISSEN
 10
820.0
 20
565.0
 30
0.0
 40
4.5
  1
DC-100V
  0
TEXT
  8
L-ZISSEN
 10
820.0
 20
575.0
 30
0.0
 40
4.5
  1
DC-24V
  0
TEXT
  8
L-ZISSEN
 10
715.0
 20
585.0
 30
0.0
 40
4.5
  1
PILOT VALVE
  0
TEXT
  8
L-ZISSEN
 10
1175.0
 20
315.0
 30
0.0
 40
4.5
  1
DC-100V
  0
TEXT
  8
L-ZISSEN
 10
1175.0
 20
325.0
 30
0.0
 40
4.5
  1
DC-24V
  0
TEXT
  8
L-ZISSEN
 10
1070.0
 20
320.0
 30
0.0
 40
4.5
  1
MODEL NO. : 36B-*00-2*R0
  0
TEXT
  8
L-ZISSEN
 10
1070.0
 20
330.0
 30
0.0
 40
4.5
  1
PILOT VALVE
  0
TEXT
  8
L-ZISSEN
 10
1500.0
 20
1070.0
 30
0.0
 40
4.5
  1
MODEL NO. : 36B-*00- **2
  0
TEXT
  8
L-ZISSEN
 10
1583.0
 20
1073.0
 30
0.0
 40
4.5
  1
1
  0
TEXT
  8
L-ZISSEN
 10
1582.5
 20
1067.0
 30
0.0
 40
4.5
  1
0
  0
SOLID
  8
L-ZISSEN
 10
747.707973
 20
1008.10003
 30
0.0
 11
748.285911
 21
1008.432344
 31
0.0
 12
747.0
 22
1010.0
 32
0.0
 13
747.0
 23
1010.0
 33
0.0
  0
LINE
  8
L-ZISSEN
 10
747.996942
 20
1008.266187
 30
0.0
 11
770.0
 21
970.0
 31
0.0
  0
LINE
  8
L-ZISSEN
 10
770.0
 20
970.0
 30
0.0
 11
772.0
 21
970.0
 31
0.0
  0
TEXT
  8
L-ZISSEN
 10
774.0
 20
967.75
 30
0.0
 40
4.5
  1
P.P
  0
SOLID
  8
L-ZISSEN
 10
748.133505
 20
892.318846
 30
0.0
 11
748.617474
 21
892.777343
 31
0.0
 12
747.0
 22
894.0
 32
0.0
 13
747.0
 23
894.0
 33
0.0
  0
LINE
  8
L-ZISSEN
 10
748.375489
 20
892.548095
 30
0.0
 11
765.0
 21
875.0
 31
0.0
  0
LINE
  8
L-ZISSEN
 10
765.0
 20
875.0
 30
0.0
 11
767.0
 21
875.0
 31
0.0
  0
TEXT
  8
L-ZISSEN
 10
769.0
 20
872.75
 30
0.0
 40
4.5
  1
P.P
  0
SOLID
  8
L-ZISSEN
 10
950.977661
 20
892.223686
 30
0.0
 11
951.500916
 21
892.636783
 31
0.0
 12
950.0
 22
894.0
 32
0.0
 13
950.0
 23
894.0
 33
0.0
  0
LINE
  8
L-ZISSEN
 10
951.239289
 20
892.430234
 30
0.0
 11
965.0
 21
875.0
 31
0.0
  0
LINE
  8
L-ZISSEN
 10
965.0
 20
875.0
 30
0.0
 11
967.0
 21
875.0
 31
0.0
  0
TEXT
  8
L-ZISSEN
 10
969.0
 20
872.75
 30
0.0
 40
4.5
  1
P.P
  0
TEXT
  8
L-ZISSEN
 10
769.0
 20
622.75
 30
0.0
 40
4.5
  1
P.P
  0
LINE
  8
L-ZISSEN
 10
765.0
 20
625.0
 30
0.0
 11
767.0
 21
625.0
 31
0.0
  0
LINE
  8
L-ZISSEN
 10
748.375489
 20
642.548095
 30
0.0
 11
765.0
 21
625.0
 31
0.0
  0
SOLID
  8
L-ZISSEN
 10
748.133505
 20
642.318846
 30
0.0
 11
748.617474
 21
642.777343
 31
0.0
 12
747.0
 22
644.0
 32
0.0
 13
747.0
 23
644.0
 33
0.0
  0
TEXT
  8
L-ZISSEN
 10
969.0
 20
622.75
 30
0.0
 40
4.5
  1
P.P
  0
LINE
  8
L-ZISSEN
 10
965.0
 20
625.0
 30
0.0
 11
967.0
 21
625.0
 31
0.0
  0
LINE
  8
L-ZISSEN
 10
951.239289
 20
642.430234
 30
0.0
 11
965.0
 21
625.0
 31
0.0
  0
SOLID
  8
L-ZISSEN
 10
950.977661
 20
642.223686
 30
0.0
 11
951.500916
 21
642.636783
 31
0.0
 12
950.0
 22
644.0
 32
0.0
 13
950.0
 23
644.0
 33
0.0
  0
SOLID
  8
L-ZISSEN
 10
747.707973
 20
758.10003
 30
0.0
 11
748.285911
 21
758.432344
 31
0.0
 12
747.0
 22
760.0
 32
0.0
 13
747.0
 23
760.0
 33
0.0
  0
LINE
  8
L-ZISSEN
 10
747.996942
 20
758.266187
 30
0.0
 11
770.0
 21
720.0
 31
0.0
  0
TEXT
  8
L-ZISSEN
 10
774.0
 20
717.75
 30
0.0
 40
4.5
  1
P.P
  0
LINE
  8
L-ZISSEN
 10
770.0
 20
720.0
 30
0.0
 11
772.0
 21
720.0
 31
0.0
  0
SOLID
  8
L-ZISSEN
 10
748.133505
 20
392.318846
 30
0.0
 11
748.617474
 21
392.777343
 31
0.0
 12
747.0
 22
394.0
 32
0.0
 13
747.0
 23
394.0
 33
0.0
  0
LINE
  8
L-ZISSEN
 10
748.375489
 20
392.548095
 30
0.0
 11
765.0
 21
375.0
 31
0.0
  0
LINE
  8
L-ZISSEN
 10
765.0
 20
375.0
 30
0.0
 11
767.0
 21
375.0
 31
0.0
  0
TEXT
  8
L-ZISSEN
 10
769.0
 20
372.75
 30
0.0
 40
4.5
  1
P.P
  0
SOLID
  8
L-ZISSEN
 10
950.977661
 20
392.223686
 30
0.0
 11
951.500916
 21
392.636783
 31
0.0
 12
950.0
 22
394.0
 32
0.0
 13
950.0
 23
394.0
 33
0.0
  0
LINE
  8
L-ZISSEN
 10
951.239289
 20
392.430234
 30
0.0
 11
965.0
 21
375.0
 31
0.0
  0
LINE
  8
L-ZISSEN
 10
965.0
 20
375.0
 30
0.0
 11
967.0
 21
375.0
 31
0.0
  0
TEXT
  8
L-ZISSEN
 10
969.0
 20
372.75
 30
0.0
 40
4.5
  1
P.P
  0
SOLID
  8
L-ZISSEN
 10
747.707973
 20
508.10003
 30
0.0
 11
748.285911
 21
508.432344
 31
0.0
 12
747.0
 22
510.0
 32
0.0
 13
747.0
 23
510.0
 33
0.0
  0
LINE
  8
L-ZISSEN
 10
747.996942
 20
508.266187
 30
0.0
 11
770.0
 21
470.0
 31
0.0
  0
LINE
  8
L-ZISSEN
 10
770.0
 20
470.0
 30
0.0
 11
772.0
 21
470.0
 31
0.0
  0
TEXT
  8
L-ZISSEN
 10
774.0
 20
467.75
 30
0.0
 40
4.5
  1
P.P
  0
TEXT
  8
L-ZISSEN
 10
1409.0
 20
622.75
 30
0.0
 40
4.5
  1
P.P
  0
LINE
  8
L-ZISSEN
 10
1405.0
 20
625.0
 30
0.0
 11
1407.0
 21
625.0
 31
0.0
  0
LINE
  8
L-ZISSEN
 10
1391.239289
 20
642.430234
 30
0.0
 11
1405.0
 21
625.0
 31
0.0
  0
SOLID
  8
L-ZISSEN
 10
1390.977661
 20
642.223686
 30
0.0
 11
1391.500916
 21
642.636783
 31
0.0
 12
1390.0
 22
644.0
 32
0.0
 13
1390.0
 23
644.0
 33
0.0
  0
SOLID
  8
L-ZISSEN
 10
1187.707973
 20
758.10003
 30
0.0
 11
1188.285911
 21
758.432344
 31
0.0
 12
1187.0
 22
760.0
 32
0.0
 13
1187.0
 23
760.0
 33
0.0
  0
LINE
  8
L-ZISSEN
 10
1187.996942
 20
758.266187
 30
0.0
 11
1210.0
 21
720.0
 31
0.0
  0
TEXT
  8
L-ZISSEN
 10
1214.0
 20
717.75
 30
0.0
 40
4.5
  1
P.P
  0
LINE
  8
L-ZISSEN
 10
1210.0
 20
720.0
 30
0.0
 11
1212.0
 21
720.0
 31
0.0
  0
TEXT
  8
L-ZISSEN
 10
1209.0
 20
622.75
 30
0.0
 40
4.5
  1
P.P
  0
LINE
  8
L-ZISSEN
 10
1205.0
 20
625.0
 30
0.0
 11
1207.0
 21
625.0
 31
0.0
  0
LINE
  8
L-ZISSEN
 10
1188.375489
 20
642.548095
 30
0.0
 11
1205.0
 21
625.0
 31
0.0
  0
SOLID
  8
L-ZISSEN
 10
1188.133505
 20
642.318846
 30
0.0
 11
1188.617474
 21
642.777343
 31
0.0
 12
1187.0
 22
644.0
 32
0.0
 13
1187.0
 23
644.0
 33
0.0
  0
SOLID
  8
L-ZISSEN
 10
1390.977661
 20
392.223686
 30
0.0
 11
1391.500916
 21
392.636783
 31
0.0
 12
1390.0
 22
394.0
 32
0.0
 13
1390.0
 23
394.0
 33
0.0
  0
LINE
  8
L-ZISSEN
 10
1391.239289
 20
392.430234
 30
0.0
 11
1405.0
 21
375.0
 31
0.0
  0
LINE
  8
L-ZISSEN
 10
1405.0
 20
375.0
 30
0.0
 11
1407.0
 21
375.0
 31
0.0
  0
TEXT
  8
L-ZISSEN
 10
1409.0
 20
372.75
 30
0.0
 40
4.5
  1
P.P
  0
SOLID
  8
L-ZISSEN
 10
1188.133505
 20
392.318846
 30
0.0
 11
1188.617474
 21
392.777343
 31
0.0
 12
1187.0
 22
394.0
 32
0.0
 13
1187.0
 23
394.0
 33
0.0
  0
LINE
  8
L-ZISSEN
 10
1188.375489
 20
392.548095
 30
0.0
 11
1205.0
 21
375.0
 31
0.0
  0
LINE
  8
L-ZISSEN
 10
1205.0
 20
375.0
 30
0.0
 11
1207.0
 21
375.0
 31
0.0
  0
TEXT
  8
L-ZISSEN
 10
1209.0
 20
372.75
 30
0.0
 40
4.5
  1
P.P
  0
SOLID
  8
L-ZISSEN
 10
1187.707973
 20
508.10003
 30
0.0
 11
1188.285911
 21
508.432344
 31
0.0
 12
1187.0
 22
510.0
 32
0.0
 13
1187.0
 23
510.0
 33
0.0
  0
LINE
  8
L-ZISSEN
 10
1187.996942
 20
508.266187
 30
0.0
 11
1210.0
 21
470.0
 31
0.0
  0
LINE
  8
L-ZISSEN
 10
1210.0
 20
470.0
 30
0.0
 11
1212.0
 21
470.0
 31
0.0
  0
TEXT
  8
L-ZISSEN
 10
1214.0
 20
467.75
 30
0.0
 40
4.5
  1
P.P
  0
TEXT
  8
L-ZISSEN
 10
1209.0
 20
122.75
 30
0.0
 40
4.5
  1
P.P
  0
LINE
  8
L-ZISSEN
 10
1205.0
 20
125.0
 30
0.0
 11
1207.0
 21
125.0
 31
0.0
  0
LINE
  8
L-ZISSEN
 10
1188.375489
 20
142.548095
 30
0.0
 11
1205.0
 21
125.0
 31
0.0
  0
SOLID
  8
L-ZISSEN
 10
1188.133505
 20
142.318846
 30
0.0
 11
1188.617474
 21
142.777343
 31
0.0
 12
1187.0
 22
144.0
 32
0.0
 13
1187.0
 23
144.0
 33
0.0
  0
TEXT
  8
L-ZISSEN
 10
1409.0
 20
122.75
 30
0.0
 40
4.5
  1
P.P
  0
LINE
  8
L-ZISSEN
 10
1405.0
 20
125.0
 30
0.0
 11
1407.0
 21
125.0
 31
0.0
  0
LINE
  8
L-ZISSEN
 10
1391.239289
 20
142.430234
 30
0.0
 11
1405.0
 21
125.0
 31
0.0
  0
SOLID
  8
L-ZISSEN
 10
1390.977661
 20
142.223686
 30
0.0
 11
1391.500916
 21
142.636783
 31
0.0
 12
1390.0
 22
144.0
 32
0.0
 13
1390.0
 23
144.0
 33
0.0
  0
TEXT
  8
L-ZISSEN
 10
1214.0
 20
217.75
 30
0.0
 40
4.5
  1
P.P
  0
LINE
  8
L-ZISSEN
 10
1210.0
 20
220.0
 30
0.0
 11
1212.0
 21
220.0
 31
0.0
  0
LINE
  8
L-ZISSEN
 10
1187.996942
 20
258.266187
 30
0.0
 11
1210.0
 21
220.0
 31
0.0
  0
SOLID
  8
L-ZISSEN
 10
1187.707973
 20
258.10003
 30
0.0
 11
1188.285911
 21
258.432344
 31
0.0
 12
1187.0
 22
260.0
 32
0.0
 13
1187.0
 23
260.0
 33
0.0
  0
SOLID
  8
L-ZISSEN
 10
1537.935184
 20
761.799039
 30
0.0
 11
1537.301161
 21
762.005097
 31
0.0
 12
1537.0
 22
760.0
 32
0.0
 13
1537.0
 23
760.0
 33
0.0
  0
LINE
  8
L-ZISSEN
 10
1537.618172
 20
761.902068
 30
0.0
 11
1550.0
 21
800.0
 31
0.0
  0
LINE
  8
L-ZISSEN
 10
1550.0
 20
800.0
 30
0.0
 11
1552.0
 21
800.0
 31
0.0
  0
TEXT
  8
L-ZISSEN
 10
1554.0
 20
797.75
 30
0.0
 40
4.5
  1
P.P
  0
SOLID
  8
L-ZISSEN
 10
1537.935184
 20
1011.799039
 30
0.0
 11
1537.301161
 21
1012.005097
 31
0.0
 12
1537.0
 22
1010.0
 32
0.0
 13
1537.0
 23
1010.0
 33
0.0
  0
LINE
  8
L-ZISSEN
 10
1537.618172
 20
1011.902068
 30
0.0
 11
1550.0
 21
1050.0
 31
0.0
  0
TEXT
  8
L-ZISSEN
 10
1554.0
 20
1047.75
 30
0.0
 40
4.5
  1
P.P
  0
LINE
  8
L-ZISSEN
 10
1550.0
 20
1050.0
 30
0.0
 11
1552.0
 21
1050.0
 31
0.0
  0
TEXT
  8
L-ZISSEN
 10
1214.0
 20
967.75
 30
0.0
 40
4.5
  1
P.P
  0
LINE
  8
L-ZISSEN
 10
1210.0
 20
970.0
 30
0.0
 11
1212.0
 21
970.0
 31
0.0
  0
LINE
  8
L-ZISSEN
 10
1187.996942
 20
1008.266187
 30
0.0
 11
1210.0
 21
970.0
 31
0.0
  0
SOLID
  8
L-ZISSEN
 10
1187.707973
 20
1008.10003
 30
0.0
 11
1188.285911
 21
1008.432344
 31
0.0
 12
1187.0
 22
1010.0
 32
0.0
 13
1187.0
 23
1010.0
 33
0.0
  0
TEXT
  8
L-ZISSEN
 10
1209.0
 20
872.75
 30
0.0
 40
4.5
  1
P.P
  0
LINE
  8
L-ZISSEN
 10
1205.0
 20
875.0
 30
0.0
 11
1207.0
 21
875.0
 31
0.0
  0
LINE
  8
L-ZISSEN
 10
1188.375489
 20
892.548095
 30
0.0
 11
1205.0
 21
875.0
 31
0.0
  0
SOLID
  8
L-ZISSEN
 10
1188.133505
 20
892.318846
 30
0.0
 11
1188.617474
 21
892.777343
 31
0.0
 12
1187.0
 22
894.0
 32
0.0
 13
1187.0
 23
894.0
 33
0.0
  0
TEXT
  8
L-ZISSEN
 10
1409.0
 20
872.75
 30
0.0
 40
4.5
  1
P.P
  0
LINE
  8
L-ZISSEN
 10
1405.0
 20
875.0
 30
0.0
 11
1407.0
 21
875.0
 31
0.0
  0
LINE
  8
L-ZISSEN
 10
1391.239289
 20
892.430234
 30
0.0
 11
1405.0
 21
875.0
 31
0.0
  0
SOLID
  8
L-ZISSEN
 10
1390.977661
 20
892.223686
 30
0.0
 11
1391.500916
 21
892.636783
 31
0.0
 12
1390.0
 22
894.0
 32
0.0
 13
1390.0
 23
894.0
 33
0.0
  0
TEXT
  8
L-ZISSEN
 10
1175.0
 20
1065.0
 30
0.0
 40
4.5
  1
AC-200V
  0
TEXT
  8
L-ZISSEN
 10
1175.0
 20
1075.0
 30
0.0
 40
4.5
  1
AC-100V
  0
TEXT
  8
L-ZISSEN
 10
1070.0
 20
1080.0
 30
0.0
 40
4.5
  1
PILOT VALVE
  0
TEXT
  8
L-ZISSEN
 10
1070.0
 20
1070.0
 30
0.0
 40
4.5
  1
MODEL NO. : 36B-*00-2*B0
  0
LINE
  8
L-ZISSEN
  6
CONTINUOUS
 62
     7
 10
1139.9
 20
1036.0
 30
0.0
 11
1093.9
 21
1034.393644
 31
0.0
  0
LINE
  8
L-ZISSEN
  6
CONTINUOUS
 62
     7
 10
1093.9
 20
985.606356
 30
0.0
 11
1093.9
 21
1034.393644
 31
0.0
  0
LINE
  8
L-ZISSEN
  6
CONTINUOUS
 62
     7
 10
1139.9
 20
984.0
 30
0.0
 11
1093.9
 21
985.606356
 31
0.0
  0
LINE
  8
L-ZISSEN
  6
CONTINUOUS
 62
     7
 10
1234.1
 20
984.0
 30
0.0
 11
1280.1
 21
985.606356
 31
0.0
  0
LINE
  8
L-ZISSEN
  6
CONTINUOUS
 62
     7
 10
1280.1
 20
985.606356
 30
0.0
 11
1280.1
 21
1034.393644
 31
0.0
  0
LINE
  8
L-ZISSEN
  6
CONTINUOUS
 62
     7
 10
1234.1
 20
1036.0
 30
0.0
 11
1280.1
 21
1034.393644
 31
0.0
  0
LINE
  8
L-ZISSEN
  6
CONTINUOUS
 62
     7
 10
1149.9
 20
894.0
 30
0.0
 11
1149.9
 21
946.0
 31
0.0
  0
LINE
  8
L-ZISSEN
  6
CONTINUOUS
 62
     7
 10
1149.9
 20
894.0
 30
0.0
 11
1149.9
 21
946.0
 31
0.0
  0
LINE
  8
L-ZISSEN
 10
1152.0
 20
946.0
 30
0.0
 11
1139.9
 21
946.0
 31
0.0
  0
LINE
  8
L-ZISSEN
  6
CONTINUOUS
 62
     7
 10
1139.9
 20
894.0
 30
0.0
 11
1093.9
 21
895.606356
 31
0.0
  0
LINE
  8
L-ZISSEN
  6
CONTINUOUS
 62
     7
 10
1093.9
 20
895.606356
 30
0.0
 11
1093.9
 21
944.393644
 31
0.0
  0
LINE
  8
L-ZISSEN
  6
CONTINUOUS
 62
     7
 10
1139.9
 20
946.0
 30
0.0
 11
1093.9
 21
944.393644
 31
0.0
  0
LINE
  8
L-ZISSEN
  6
CONTINUOUS
 62
     7
 10
1234.1
 20
946.0
 30
0.0
 11
1280.1
 21
944.393644
 31
0.0
  0
LINE
  8
L-ZISSEN
  6
CONTINUOUS
 62
     7
 10
1280.1
 20
895.606356
 30
0.0
 11
1280.1
 21
944.393644
 31
0.0
  0
LINE
  8
L-ZISSEN
  6
CONTINUOUS
 62
     7
 10
1234.1
 20
894.0
 30
0.0
 11
1280.1
 21
895.606356
 31
0.0
  0
LINE
  8
L-ZISSEN
 10
1222.0
 20
946.0
 30
0.0
 11
1234.1
 21
946.0
 31
0.0
  0
LINE
  8
L-ZISSEN
 10
1139.9
 20
894.0
 30
0.0
 11
1234.1
 21
894.0
 31
0.0
  0
LINE
  8
L-ZISSEN
  6
CONTINUOUS
 62
     7
 10
1224.1
 20
894.0
 30
0.0
 11
1224.1
 21
946.0
 31
0.0
  0
CIRCLE
  8
L-ZISSEN
 10
1187.0
 20
941.0
 30
0.0
 40
9.3155
  0
LINE
  8
L-ZISSEN
  6
CONTINUOUS
 62
     7
 10
1159.5
 20
959.1
 30
0.0
 11
1152.5
 21
959.1
 31
0.0
  0
LINE
  8
L-ZISSEN
  6
CONTINUOUS
 62
     7
 10
1159.5
 20
955.5
 30
0.0
 11
1159.5
 21
959.1
 31
0.0
  0
LINE
  8
L-ZISSEN
  6
CONTINUOUS
 62
     7
 10
1152.5
 20
955.5
 30
0.0
 11
1152.5
 21
959.1
 31
0.0
  0
LINE
  8
L-ZISSEN
  6
CONTINUOUS
 62
     7
 10
1152.0
 20
955.5
 30
0.0
 11
1152.0
 21
946.0
 31
0.0
  0
LINE
  8
L-ZISSEN
  6
CONTINUOUS
 62
     7
 10
1221.5
 20
955.5
 30
0.0
 11
1221.5
 21
959.1
 31
0.0
  0
LINE
  8
L-ZISSEN
  6
CONTINUOUS
 62
     7
 10
1214.5
 20
955.5
 30
0.0
 11
1214.5
 21
959.1
 31
0.0
  0
LINE
  8
L-ZISSEN
  6
CONTINUOUS
 62
     7
 10
1214.5
 20
959.1
 30
0.0
 11
1221.5
 21
959.1
 31
0.0
  0
LINE
  8
L-ZISSEN
  6
CONTINUOUS
 62
     7
 10
1179.5
 20
954.0
 30
0.0
 11
1179.5
 21
951.618381
 31
0.0
  0
LINE
  8
L-ZISSEN
  6
CONTINUOUS
 62
     7
 10
1194.5
 20
954.0
 30
0.0
 11
1194.5
 21
951.618381
 31
0.0
  0
ARC
  8
L-ZISSEN
  6
CONTINUOUS
 62
     7
 10
1187.0
 20
941.0
 30
0.0
 40
13.0
 50
125.234418
 51
54.765582
  0
LINE
  8
L-ZISSEN
  6
CONTINUOUS
 62
     7
 10
1224.1
 20
894.0
 30
0.0
 11
1224.1
 21
946.0
 31
0.0
  0
LINE
  8
L-ZISSEN
  6
CONTINUOUS
 62
     7
 10
1152.0
 20
955.5
 30
0.0
 11
1221.9
 21
955.5
 31
0.0
  0
LINE
  8
L-ZISSEN
  6
CONTINUOUS
 62
     7
 10
1222.0
 20
955.5
 30
0.0
 11
1222.0
 21
946.0
 31
0.0
  0
LINE
  8
L-ZISSEN
  6
CONTINUOUS
 62
     7
 10
1221.9
 20
954.0
 30
0.0
 11
1152.0
 21
954.0
 31
0.0
  0
LINE
  8
L-ZISSEN
 10
1234.1
 20
984.0
 30
0.0
 11
1139.9
 21
984.0
 31
0.0
  0
LINE
  8
L-ZISSEN
 10
1222.0
 20
984.0
 30
0.0
 11
1222.0
 21
1036.0
 31
0.0
  0
LINE
  8
L-ZISSEN
  6
CONTINUOUS
 62
     7
 10
1224.1
 20
984.0
 30
0.0
 11
1224.1
 21
1036.0
 31
0.0
  0
LINE
  8
L-ZISSEN
 10
1174.0
 20
982.0
 30
0.0
 11
1174.0
 21
984.0
 31
0.0
  0
LINE
  8
L-ZISSEN
 10
1200.0
 20
982.0
 30
0.0
 11
1174.0
 21
982.0
 31
0.0
  0
LINE
  8
L-ZISSEN
 10
1200.0
 20
982.0
 30
0.0
 11
1200.0
 21
984.0
 31
0.0
  0
LINE
  8
L-ZISSEN
 10
1234.1
 20
1036.0
 30
0.0
 11
1139.9
 21
1036.0
 31
0.0
  0
LINE
  8
L-ZISSEN
 10
1200.0
 20
1038.0
 30
0.0
 11
1200.0
 21
1036.0
 31
0.0
  0
LINE
  8
L-ZISSEN
 10
1200.0
 20
1038.0
 30
0.0
 11
1174.0
 21
1038.0
 31
0.0
  0
LINE
  8
L-ZISSEN
 10
1174.0
 20
1038.0
 30
0.0
 11
1174.0
 21
1036.0
 31
0.0
  0
LINE
  8
L-ZISSEN
  6
CONTINUOUS
 62
     7
 10
1415.5
 20
955.5
 30
0.0
 11
1415.5
 21
959.1
 31
0.0
  0
LINE
  8
L-ZISSEN
  6
CONTINUOUS
 62
     7
 10
1408.5
 20
955.5
 30
0.0
 11
1408.5
 21
959.1
 31
0.0
  0
LINE
  8
L-ZISSEN
  6
CONTINUOUS
 62
     7
 10
1408.5
 20
959.1
 30
0.0
 11
1415.5
 21
959.1
 31
0.0
  0
LINE
  8
L-ZISSEN
 10
1416.0
 20
928.0
 30
0.0
 11
1418.0
 21
928.0
 31
0.0
  0
LINE
  8
L-ZISSEN
 10
1362.0
 20
928.0
 30
0.0
 11
1364.0
 21
928.0
 31
0.0
  0
LINE
  8
L-ZISSEN
  6
CONTINUOUS
 62
     7
 10
1371.5
 20
959.1
 30
0.0
 11
1364.5
 21
959.1
 31
0.0
  0
LINE
  8
L-ZISSEN
  6
CONTINUOUS
 62
     7
 10
1371.5
 20
955.5
 30
0.0
 11
1371.5
 21
959.1
 31
0.0
  0
LINE
  8
L-ZISSEN
  6
CONTINUOUS
 62
     7
 10
1364.5
 20
955.5
 30
0.0
 11
1364.5
 21
959.1
 31
0.0
  0
LINE
  8
L-ZISSEN
 10
1418.0
 20
928.0
 30
0.0
 11
1418.0
 21
954.0
 31
0.0
  0
LINE
  8
L-ZISSEN
 10
1364.0
 20
955.5
 30
0.0
 11
1416.0
 21
955.5
 31
0.0
  0
LINE
  8
L-ZISSEN
 10
1362.0
 20
954.0
 30
0.0
 11
1418.0
 21
954.0
 31
0.0
  0
LINE
  8
L-ZISSEN
 10
1416.0
 20
955.5
 30
0.0
 11
1416.0
 21
894.0
 31
0.0
  0
LINE
  8
L-ZISSEN
 10
1362.0
 20
928.0
 30
0.0
 11
1362.0
 21
954.0
 31
0.0
  0
LINE
  8
L-ZISSEN
 10
1364.0
 20
946.0
 30
0.0
 11
1416.0
 21
946.0
 31
0.0
  0
LINE
  8
L-ZISSEN
 10
1364.0
 20
894.0
 30
0.0
 11
1364.0
 21
955.5
 31
0.0
  0
LINE
  8
L-ZISSEN
 10
1364.0
 20
894.0
 30
0.0
 11
1416.0
 21
894.0
 31
0.0
  0
LINE
  8
L-ZISSEN
  6
CONTINUOUS
 62
     7
 10
1149.9
 20
984.0
 30
0.0
 11
1149.9
 21
1036.0
 31
0.0
  0
LINE
  8
L-ZISSEN
 10
1152.0
 20
984.0
 30
0.0
 11
1152.0
 21
1036.0
 31
0.0
  0
LINE
  8
L-ZISSEN
  6
CONTINUOUS
 62
     7
 10
1149.9
 20
894.0
 30
0.0
 11
1149.9
 21
946.0
 31
0.0
  0
LINE
  8
L-ZISSEN
  6
CONTINUOUS
 62
     7
 10
1149.9
 20
894.0
 30
0.0
 11
1149.9
 21
946.0
 31
0.0
  0
CIRCLE
  8
L-ZISSEN
 10
1218.0
 20
988.0
 30
0.0
 40
3.5
  0
CIRCLE
  8
L-ZISSEN
 10
1156.0
 20
988.0
 30
0.0
 40
3.5
  0
CIRCLE
  8
L-ZISSEN
 10
1156.0
 20
1032.0
 30
0.0
 40
3.5
  0
CIRCLE
  8
L-ZISSEN
 10
1218.0
 20
1032.0
 30
0.0
 40
3.5
  0
LINE
  8
L-ZISSEN
  6
CONTINUOUS
 62
     7
 10
1281.1
 20
1021.0
 30
0.0
 11
1280.1
 21
1021.0
 31
0.0
  0
LINE
  8
L-ZISSEN
  6
CONTINUOUS
 62
     7
 10
1281.1
 20
1021.0
 30
0.0
 11
1281.1
 21
999.0
 31
0.0
  0
LINE
  8
L-ZISSEN
  6
CONTINUOUS
 62
     7
 10
1281.1
 20
999.0
 30
0.0
 11
1280.1
 21
999.0
 31
0.0
  0
CIRCLE
  8
L-ZISSEN
 10
1390.0
 20
920.0
 30
0.0
 40
11.0
  0
LINE
  8
L-ZISSEN
  6
CONTINUOUS
 62
     7
 10
1092.9
 20
999.0
 30
0.0
 11
1093.9
 21
999.0
 31
0.0
  0
LINE
  8
L-ZISSEN
  6
CONTINUOUS
 62
     7
 10
1092.9
 20
1021.0
 30
0.0
 11
1092.9
 21
999.0
 31
0.0
  0
LINE
  8
L-ZISSEN
  6
CONTINUOUS
 62
     7
 10
1092.9
 20
1021.0
 30
0.0
 11
1093.9
 21
1021.0
 31
0.0
  0
LINE
  8
L-ZISSEN
  6
CONTINUOUS
 62
     7
 10
1092.9
 20
931.0
 30
0.0
 11
1093.9
 21
931.0
 31
0.0
  0
LINE
  8
L-ZISSEN
  6
CONTINUOUS
 62
     7
 10
1092.9
 20
931.0
 30
0.0
 11
1092.9
 21
909.0
 31
0.0
  0
LINE
  8
L-ZISSEN
  6
CONTINUOUS
 62
     7
 10
1092.9
 20
909.0
 30
0.0
 11
1093.9
 21
909.0
 31
0.0
  0
LINE
  8
L-ZISSEN
  6
CONTINUOUS
 62
     7
 10
1281.1
 20
909.0
 30
0.0
 11
1280.1
 21
909.0
 31
0.0
  0
LINE
  8
L-ZISSEN
  6
CONTINUOUS
 62
     7
 10
1281.1
 20
931.0
 30
0.0
 11
1281.1
 21
909.0
 31
0.0
  0
LINE
  8
L-ZISSEN
  6
CONTINUOUS
 62
     7
 10
1281.1
 20
931.0
 30
0.0
 11
1280.1
 21
931.0
 31
0.0
  0
LINE
  8
L-ZISSEN
  6
CONTINUOUS
 62
     7
 10
175.0
 20
474.240953
 30
0.0
 11
175.0
 21
440.0
 31
0.0
  0
LINE
  8
L-ZISSEN
  6
CONTINUOUS
 62
     7
 10
185.0
 20
525.409839
 30
0.0
 11
185.0
 21
545.0
 31
0.0
  0
LINE
  8
L-ZISSEN
  6
CONTINUOUS
 62
     7
 10
200.0
 20
524.886027
 30
0.0
 11
200.0
 21
540.0
 31
0.0
  0
LINE
  8
L-ZISSEN
  6
CONTINUOUS
 62
     7
 10
554.5
 20
349.1
 30
0.0
 11
561.5
 21
349.1
 31
0.0
  0
LINE
  8
L-ZISSEN
  6
CONTINUOUS
 62
     7
 10
554.5
 20
345.5
 30
0.0
 11
554.5
 21
349.1
 31
0.0
  0
LINE
  8
L-ZISSEN
  6
CONTINUOUS
 62
     7
 10
561.5
 20
345.5
 30
0.0
 11
561.5
 21
349.1
 31
0.0
  0
LINE
  8
L-ZISSEN
  6
CONTINUOUS
 62
     7
 10
495.9
 20
285.606356
 30
0.0
 11
495.9
 21
334.393644
 31
0.0
  0
LINE
  8
L-ZISSEN
  6
CONTINUOUS
 62
     7
 10
494.9
 20
321.0
 30
0.0
 11
495.9
 21
321.0
 31
0.0
  0
LINE
  8
L-ZISSEN
  6
CONTINUOUS
 62
     7
 10
494.9
 20
321.0
 30
0.0
 11
494.9
 21
299.0
 31
0.0
  0
LINE
  8
L-ZISSEN
  6
CONTINUOUS
 62
     7
 10
494.9
 20
299.0
 30
0.0
 11
495.9
 21
299.0
 31
0.0
  0
LINE
  8
L-ZISSEN
  6
CONTINUOUS
 62
     7
 10
541.9
 20
336.0
 30
0.0
 11
495.9
 21
334.393644
 31
0.0
  0
LINE
  8
L-ZISSEN
  6
CONTINUOUS
 62
     7
 10
536.5
 20
284.188572
 30
0.0
 11
495.9
 21
285.606356
 31
0.0
  0
LINE
  8
L-ZISSEN
  6
CONTINUOUS
 62
     7
 10
613.4
 20
294.5
 30
0.0
 11
613.4
 21
286.5
 31
0.0
  0
LINE
  8
L-ZISSEN
  6
CONTINUOUS
 62
     7
 10
610.1
 20
294.5
 30
0.0
 11
613.4
 21
294.5
 31
0.0
  0
LINE
  8
L-ZISSEN
  6
CONTINUOUS
 62
     7
 10
610.1
 20
334.5
 30
0.0
 11
613.4
 21
334.5
 31
0.0
  0
LINE
  8
L-ZISSEN
  6
CONTINUOUS
 62
     7
 10
610.1
 20
325.5
 30
0.0
 11
613.4
 21
325.5
 31
0.0
  0
LINE
  8
L-ZISSEN
  6
CONTINUOUS
 62
     7
 10
613.4
 20
334.5
 30
0.0
 11
613.4
 21
325.5
 31
0.0
  0
LINE
  8
L-ZISSEN
  6
CONTINUOUS
 62
     7
 10
605.5
 20
345.5
 30
0.0
 11
605.5
 21
349.1
 31
0.0
  0
LINE
  8
L-ZISSEN
  6
CONTINUOUS
 62
     7
 10
598.5
 20
345.5
 30
0.0
 11
598.5
 21
349.1
 31
0.0
  0
LINE
  8
L-ZISSEN
  6
CONTINUOUS
 62
     7
 10
598.5
 20
349.1
 30
0.0
 11
605.5
 21
349.1
 31
0.0
  0
LINE
  8
L-ZISSEN
 10
606.0
 20
345.5
 30
0.0
 11
554.0
 21
345.5
 31
0.0
  0
LINE
  8
L-ZISSEN
 10
608.1
 20
336.0
 30
0.0
 11
608.1
 21
286.5
 31
0.0
  0
LINE
  8
L-ZISSEN
 10
610.1
 20
336.0
 30
0.0
 11
610.1
 21
286.5
 31
0.0
  0
LINE
  8
L-ZISSEN
 10
551.9
 20
336.0
 30
0.0
 11
551.9
 21
286.5
 31
0.0
  0
LINE
  8
L-ZISSEN
 10
554.0
 20
336.0
 30
0.0
 11
541.9
 21
336.0
 31
0.0
  0
LINE
  8
L-ZISSEN
 10
610.1
 20
336.0
 30
0.0
 11
606.0
 21
336.0
 31
0.0
  0
LINE
  8
L-ZISSEN
 10
606.0
 20
345.5
 30
0.0
 11
606.0
 21
336.0
 31
0.0
  0
LINE
  8
L-ZISSEN
 10
554.0
 20
345.5
 30
0.0
 11
554.0
 21
336.0
 31
0.0
  0
LINE
  8
L-ZISSEN
 10
587.5
 20
344.0
 30
0.0
 11
587.5
 21
341.618381
 31
0.0
  0
LINE
  8
L-ZISSEN
 10
572.5
 20
344.0
 30
0.0
 11
572.5
 21
341.618381
 31
0.0
  0
CIRCLE
  8
L-ZISSEN
 10
580.0
 20
331.0
 30
0.0
 40
9.3
  0
ARC
  8
L-ZISSEN
 10
580.0
 20
331.0
 30
0.0
 40
13.0
 50
125.234418
 51
54.765582
  0
LINE
  8
L-ZISSEN
 10
554.0
 20
344.0
 30
0.0
 11
606.0
 21
344.0
 31
0.0
  0
LINE
  8
L-ZISSEN
  6
CONTINUOUS
 62
     7
 10
536.5
 20
274.0
 30
0.0
 11
536.5
 21
286.5
 31
0.0
  0
LINE
  8
L-ZISSEN
  6
CONTINUOUS
 62
     7
 10
552.5
 20
286.5
 30
0.0
 11
552.5
 21
274.0
 31
0.0
  0
LINE
  8
L-ZISSEN
  6
CONTINUOUS
 62
     7
 10
536.5
 20
286.5
 30
0.0
 11
552.5
 21
286.5
 31
0.0
  0
LINE
  8
L-ZISSEN
  6
CONTINUOUS
 62
     7
 10
536.5
 20
284.0
 30
0.0
 11
535.0
 21
284.0
 31
0.0
  0
LINE
  8
L-ZISSEN
 10
623.5
 20
284.0
 30
0.0
 11
625.0
 21
284.0
 31
0.0
  0
LINE
  8
L-ZISSEN
 10
602.309871
 20
284.0
 30
0.0
 11
607.5
 21
284.0
 31
0.0
  0
LINE
  8
L-TYUSIN
  6
CENTER
 62
     1
 10
505.0
 20
246.5
 30
0.0
 11
505.0
 21
226.5
 31
0.0
  0
LINE
  8
L-TYUSIN
  6
CENTER
 62
     1
 10
490.0
 20
236.5
 30
0.0
 11
520.0
 21
236.5
 31
0.0
  0
LINE
  8
L-TYUSIN
  6
CENTER
 62
     1
 10
655.0
 20
246.5
 30
0.0
 11
655.0
 21
226.5
 31
0.0
  0
LINE
  8
L-TYUSIN
  6
CENTER
 62
     1
 10
670.0
 20
236.5
 30
0.0
 11
640.0
 21
236.5
 31
0.0
  0
LINE
  8
L-TYUSIN
  6
CENTER
 62
     1
 10
505.0
 20
106.5
 30
0.0
 11
505.0
 21
86.5
 31
0.0
  0
LINE
  8
L-TYUSIN
  6
CENTER
 62
     1
 10
490.0
 20
96.5
 30
0.0
 11
520.0
 21
96.5
 31
0.0
  0
LINE
  8
L-ZISSEN
  6
CONTINUOUS
 62
     7
 10
535.0
 20
274.0
 30
0.0
 11
625.0
 21
274.0
 31
0.0
  0
LINE
  8
L-TYUSIN
  6
CENTER
 62
     1
 10
655.0
 20
106.5
 30
0.0
 11
655.0
 21
86.5
 31
0.0
  0
ARC
  8
L-ZISSEN
  6
CONTINUOUS
 62
     7
 10
510.0
 20
96.5
 30
0.0
 40
5.6
 50
270.0
 51
90.0
  0
LINE
  8
L-ZISSEN
  6
CONTINUOUS
 62
     7
 10
485.0
 20
81.5
 30
0.0
 11
675.0
 21
81.5
 31
0.0
  0
LINE
  8
L-TYUSIN
  6
CENTER
 62
     1
 10
670.0
 20
96.5
 30
0.0
 11
640.0
 21
96.5
 31
0.0
  0
ARC
  8
L-ZISSEN
  6
CONTINUOUS
 62
     7
 10
650.0
 20
236.5
 30
0.0
 40
5.6
 50
90.0
 51
270.0
  0
ARC
  8
L-ZISSEN
  6
CONTINUOUS
 62
     7
 10
660.0
 20
236.5
 30
0.0
 40
5.6
 50
270.0
 51
90.0
  0
LINE
  8
L-ZISSEN
  6
CONTINUOUS
 62
     7
 10
650.0
 20
242.1
 30
0.0
 11
660.0
 21
242.1
 31
0.0
  0
LINE
  8
L-ZISSEN
  6
CONTINUOUS
 62
     7
 10
650.0
 20
230.9
 30
0.0
 11
660.0
 21
230.9
 31
0.0
  0
LINE
  8
L-ZISSEN
  6
CONTINUOUS
 62
     7
 10
650.0
 20
90.9
 30
0.0
 11
660.0
 21
90.9
 31
0.0
  0
LINE
  8
L-ZISSEN
  6
CONTINUOUS
 62
     7
 10
650.0
 20
102.1
 30
0.0
 11
660.0
 21
102.1
 31
0.0
  0
ARC
  8
L-ZISSEN
  6
CONTINUOUS
 62
     7
 10
660.0
 20
96.5
 30
0.0
 40
5.6
 50
270.0
 51
90.0
  0
ARC
  8
L-ZISSEN
  6
CONTINUOUS
 62
     7
 10
650.0
 20
96.5
 30
0.0
 40
5.6
 50
90.0
 51
270.0
  0
ARC
  8
L-ZISSEN
  6
CONTINUOUS
 62
     7
 10
500.0
 20
96.5
 30
0.0
 40
5.6
 50
90.0
 51
270.0
  0
LINE
  8
L-ZISSEN
  6
CONTINUOUS
 62
     7
 10
510.0
 20
102.1
 30
0.0
 11
500.0
 21
102.1
 31
0.0
  0
LINE
  8
L-ZISSEN
  6
CONTINUOUS
 62
     7
 10
510.0
 20
90.9
 30
0.0
 11
500.0
 21
90.9
 31
0.0
  0
LINE
  8
L-ZISSEN
  6
CONTINUOUS
 62
     7
 10
510.0
 20
230.9
 30
0.0
 11
500.0
 21
230.9
 31
0.0
  0
LINE
  8
L-ZISSEN
  6
CONTINUOUS
 62
     7
 10
510.0
 20
242.1
 30
0.0
 11
500.0
 21
242.1
 31
0.0
  0
ARC
  8
L-ZISSEN
  6
CONTINUOUS
 62
     7
 10
500.0
 20
236.5
 30
0.0
 40
5.6
 50
90.0
 51
270.0
  0
ARC
  8
L-ZISSEN
  6
CONTINUOUS
 62
     7
 10
510.0
 20
236.5
 30
0.0
 40
5.6
 50
270.0
 51
90.0
  0
LINE
  8
L-ZISSEN
  6
CONTINUOUS
 62
     7
 10
675.0
 20
261.5
 30
0.0
 11
675.0
 21
81.5
 31
0.0
  0
LINE
  8
L-ZISSEN
  6
CONTINUOUS
 62
     7
 10
485.0
 20
261.5
 30
0.0
 11
485.0
 21
81.5
 31
0.0
  0
LINE
  8
L-ZISSEN
  6
CONTINUOUS
 62
     7
 10
675.0
 20
261.5
 30
0.0
 11
485.0
 21
261.5
 31
0.0
  0
LINE
  8
L-TYUSIN
  6
CENTER
 62
     1
 10
530.0
 20
275.0
 30
0.0
 11
540.0
 21
275.0
 31
0.0
  0
LINE
  8
L-ZISSEN
  6
CONTINUOUS
 62
     7
 10
607.5
 20
284.0
 30
0.0
 11
552.5
 21
284.0
 31
0.0
  0
LINE
  8
L-ZISSEN
  6
CONTINUOUS
 62
     7
 10
623.5
 20
286.5
 30
0.0
 11
623.5
 21
274.0
 31
0.0
  0
LINE
  8
L-ZISSEN
  6
CONTINUOUS
 62
     7
 10
607.5
 20
286.5
 30
0.0
 11
623.5
 21
286.5
 31
0.0
  0
LINE
  8
L-ZISSEN
  6
CONTINUOUS
 62
     7
 10
607.5
 20
274.0
 30
0.0
 11
607.5
 21
286.5
 31
0.0
  0
LINE
  8
L-ZISSEN
  6
CONTINUOUS
 62
     7
 10
607.5
 20
74.5
 30
0.0
 11
607.5
 21
62.0
 31
0.0
  0
LINE
  8
L-ZISSEN
  6
CONTINUOUS
 62
     7
 10
607.5
 20
62.0
 30
0.0
 11
623.5
 21
62.0
 31
0.0
  0
LINE
  8
L-ZISSEN
  6
CONTINUOUS
 62
     7
 10
623.5
 20
62.0
 30
0.0
 11
623.5
 21
74.5
 31
0.0
  0
LINE
  8
L-ZISSEN
  6
CONTINUOUS
 62
     7
 10
536.5
 20
62.0
 30
0.0
 11
536.5
 21
74.5
 31
0.0
  0
LINE
  8
L-ZISSEN
  6
CONTINUOUS
 62
     7
 10
552.5
 20
62.0
 30
0.0
 11
536.5
 21
62.0
 31
0.0
  0
LINE
  8
L-ZISSEN
  6
CONTINUOUS
 62
     7
 10
552.5
 20
74.5
 30
0.0
 11
552.5
 21
62.0
 31
0.0
  0
LINE
  8
L-ZISSEN
  6
CONTINUOUS
 62
     7
 10
625.0
 20
74.5
 30
0.0
 11
625.0
 21
79.0
 31
0.0
  0
LINE
  8
L-ZISSEN
  6
CONTINUOUS
 62
     7
 10
535.0
 20
74.5
 30
0.0
 11
625.0
 21
74.5
 31
0.0
  0
LINE
  8
L-ZISSEN
  6
CONTINUOUS
 62
     7
 10
535.0
 20
79.0
 30
0.0
 11
535.0
 21
74.5
 31
0.0
  0
CIRCLE
  8
L-ZISSEN
  6
CONTINUOUS
 62
     7
 10
615.5
 20
241.5
 30
0.0
 40
8.0
  0
CIRCLE
  8
L-ZISSEN
  6
CONTINUOUS
 62
     7
 10
544.5
 20
241.5
 30
0.0
 40
8.0
  0
LINE
  8
L-ZISSEN
  6
CONTINUOUS
 62
     7
 10
535.0
 20
264.0
 30
0.0
 11
625.0
 21
264.0
 31
0.0
  0
LINE
  8
L-ZISSEN
  6
CONTINUOUS
 62
     7
 10
625.0
 20
79.0
 30
0.0
 11
535.0
 21
79.0
 31
0.0
  0
LINE
  8
L-ZISSEN
  6
CONTINUOUS
 62
     7
 10
625.0
 20
284.0
 30
0.0
 11
625.0
 21
261.5
 31
0.0
  0
LINE
  8
L-ZISSEN
  6
CONTINUOUS
 62
     7
 10
535.0
 20
79.0
 30
0.0
 11
535.0
 21
81.5
 31
0.0
  0
LINE
  8
L-TYUSIN
  6
CENTER
 62
     1
 10
580.0
 20
350.5
 30
0.0
 11
580.0
 21
66.682303
 31
0.0
  0
CIRCLE
  8
L-ZISSEN
 10
592.0
 20
305.0
 30
0.0
 40
5.7225
  0
LINE
  8
L-TYUSIN
  6
CENTER
 62
     1
 10
592.0
 20
296.0
 30
0.0
 11
592.0
 21
314.0
 31
0.0
  0
LINE
  8
L-TYUSIN
  6
CENTER
 62
     1
 10
601.0
 20
305.0
 30
0.0
 11
583.0
 21
305.0
 31
0.0
  0
CIRCLE
  8
L-ZISSEN
  6
CONTINUOUS
 62
     7
 10
615.5
 20
170.5
 30
0.0
 40
8.0
  0
CIRCLE
  8
L-ZISSEN
  6
CONTINUOUS
 62
     7
 10
544.5
 20
170.5
 30
0.0
 40
8.0
  0
LINE
  8
L-ZISSEN
  6
CONTINUOUS
 62
     7
 10
535.0
 20
261.5
 30
0.0
 11
535.0
 21
284.0
 31
0.0
  0
LINE
  8
L-ZISSEN
  6
CONTINUOUS
 62
     7
 10
625.0
 20
81.5
 30
0.0
 11
625.0
 21
79.0
 31
0.0
  0
LINE
  8
L-ZISSEN
 10
531.5
 20
261.5
 30
0.0
 11
531.5
 21
81.5
 31
0.0
  0
LINE
  8
L-ZISSEN
 10
628.5
 20
261.5
 30
0.0
 11
628.5
 21
81.5
 31
0.0
  0
SOLID
  8
L-ZISSEN
 10
128.504776
 20
285.369458
 30
0.0
 11
128.14145
 21
284.810495
 31
0.0
 12
130.0
 22
284.0
 32
0.0
 13
130.0
 23
284.0
 33
0.0
  0
LINE
  8
L-ZISSEN
 10
128.323113
 20
285.089977
 30
0.0
 11
90.0
 21
310.0
 31
0.0
  0
LINE
  8
L-ZISSEN
 10
90.0
 20
310.0
 30
0.0
 11
88.0
 21
310.0
 31
0.0
  0
TEXT
  8
L-ZISSEN
 10
77.0
 20
307.75
 30
0.0
 40
4.5
  1
P.P
  0
SOLID
  8
L-ZISSEN
 10
351.804262
 20
284.925067
 30
0.0
 11
351.406713
 21
285.460229
 31
0.0
 12
350.0
 22
284.0
 32
0.0
 13
350.0
 23
284.0
 33
0.0
  0
LINE
  8
L-ZISSEN
 10
351.605488
 20
285.192648
 30
0.0
 11
385.0
 21
310.0
 31
0.0
  0
LINE
  8
L-ZISSEN
 10
385.0
 20
310.0
 30
0.0
 11
387.0
 21
310.0
 31
0.0
  0
TEXT
  8
L-ZISSEN
 10
389.0
 20
307.75
 30
0.0
 40
4.5
  1
P.P
  0
TEXT
  8
L-ZISSEN
 10
132.0
 20
628.0
 30
0.0
 40
4.5
  1
AC-100V
  0
TEXT
  8
L-ZISSEN
 10
132.0
 20
622.0
 30
0.0
 40
4.5
  1
AC-200V
  0
SOLID
  8
L-ZISSEN
 10
201.433721
 20
148.566279
 30
0.0
 11
201.821213
 21
149.108768
 31
0.0
 12
200.0
 22
150.0
 32
0.0
 13
200.0
 23
150.0
 33
0.0
  0
LINE
  8
L-ZISSEN
 10
201.627467
 20
148.837524
 30
0.0
 11
235.0
 21
125.0
 31
0.0
  0
LINE
  8
L-ZISSEN
 10
235.0
 20
125.0
 30
0.0
 11
237.0
 21
125.0
 31
0.0
  0
TEXT
  8
L-ZISSEN
 10
239.0
 20
122.75
 30
0.0
 40
4.5
  1
IN
  0
TEXT
  8
L-ZISSEN
 10
240.0
 20
115.0
 30
0.0
 40
4.5
  1
Rc 1-1/4
  0
TEXT
  8
L-ZISSEN
 10
240.0
 20
105.0
 30
0.0
 40
4.5
  1
Rc 1-1/2
  0
TEXT
  8
L-ZISSEN
 10
118.0
 20
622.0
 30
0.0
 40
4.5
  1
1
  0
TEXT
  8
L-ZISSEN
 10
118.0
 20
628.0
 30
0.0
 40
4.5
  1
0
  0
TEXT
  8
L-ZISSEN
 10
96.0
 20
628.0
 30
0.0
 40
4.5
  1
A
  0
TEXT
  8
L-ZISSEN
 10
96.0
 20
622.0
 30
0.0
 40
4.5
  1
B
  0
TEXT
  8
L-ZISSEN
 10
1484.0
 20
667.75
 30
0.0
 40
4.5
  1
P.P
  0
LINE
  8
L-ZISSEN
 10
1497.0
 20
670.0
 30
0.0
 11
1495.0
 21
670.0
 31
0.0
  0
LINE
  8
L-ZISSEN
 10
1535.323113
 20
645.089977
 30
0.0
 11
1497.0
 21
670.0
 31
0.0
  0
SOLID
  8
L-ZISSEN
 10
1535.504776
 20
645.369458
 30
0.0
 11
1535.14145
 21
644.810495
 31
0.0
 12
1537.0
 22
644.0
 32
0.0
 13
1537.0
 23
644.0
 33
0.0
  0
SOLID
  8
L-ZISSEN
 10
1641.804262
 20
644.925067
 30
0.0
 11
1641.406713
 21
645.460229
 31
0.0
 12
1640.0
 22
644.0
 32
0.0
 13
1640.0
 23
644.0
 33
0.0
  0
LINE
  8
L-ZISSEN
 10
1641.605488
 20
645.192648
 30
0.0
 11
1675.0
 21
670.0
 31
0.0
  0
TEXT
  8
L-ZISSEN
 10
1679.0
 20
667.75
 30
0.0
 40
4.5
  1
P.P
  0
LINE
  8
L-ZISSEN
 10
1675.0
 20
670.0
 30
0.0
 11
1677.0
 21
670.0
 31
0.0
  0
LINE
  8
L-ZISSEN
 10
1675.0
 20
920.0
 30
0.0
 11
1677.0
 21
920.0
 31
0.0
  0
TEXT
  8
L-ZISSEN
 10
1679.0
 20
917.75
 30
0.0
 40
4.5
  1
P.P
  0
LINE
  8
L-ZISSEN
 10
1641.605488
 20
895.192648
 30
0.0
 11
1675.0
 21
920.0
 31
0.0
  0
SOLID
  8
L-ZISSEN
 10
1641.804262
 20
894.925067
 30
0.0
 11
1641.406713
 21
895.460229
 31
0.0
 12
1640.0
 22
894.0
 32
0.0
 13
1640.0
 23
894.0
 33
0.0
  0
SOLID
  8
L-ZISSEN
 10
1535.504776
 20
895.369458
 30
0.0
 11
1535.14145
 21
894.810495
 31
0.0
 12
1537.0
 22
894.0
 32
0.0
 13
1537.0
 23
894.0
 33
0.0
  0
LINE
  8
L-ZISSEN
 10
1535.323113
 20
895.089977
 30
0.0
 11
1497.0
 21
920.0
 31
0.0
  0
LINE
  8
L-ZISSEN
 10
1497.0
 20
920.0
 30
0.0
 11
1495.0
 21
920.0
 31
0.0
  0
TEXT
  8
L-ZISSEN
 10
1484.0
 20
917.75
 30
0.0
 40
4.5
  1
P.P
  0
SOLID
  8
L-ZISSEN
 10
1654.554862
 20
483.698648
 30
0.0
 11
1654.892875
 21
484.273271
 31
0.0
 12
1653.0
 22
485.0
 32
0.0
 13
1653.0
 23
485.0
 33
0.0
  0
LINE
  8
L-ZISSEN
 10
1654.723868
 20
483.98596
 30
0.0
 11
1670.0
 21
475.0
 31
0.0
  0
LINE
  8
L-ZISSEN
 10
1670.0
 20
475.0
 30
0.0
 11
1672.0
 21
475.0
 31
0.0
  0
TEXT
  8
L-ZISSEN
 10
1674.0
 20
472.75
 30
0.0
 40
4.5
  1
IN
  0
TEXT
  8
L-ZISSEN
 10
1675.0
 20
465.0
 30
0.0
 40
4.5
  1
Rc 2
  0
ENDSEC
  0
EOF
