  0
SECTION
  2
HEADER
  9
$ACADVER
  1
AC1006
  9
$INSBASE
 10
0.0
 20
0.0
 30
0.0
  9
$EXTMIN
 10
0.0
 20
0.0
  9
$EXTMAX
 10
615.0
 20
420.0
  9
$LIMMIN
 10
0.0
 20
0.0
  9
$LIMMAX
 10
594.0
 20
420.0
  9
$ORTHOMODE
 70
     0
  9
$REGENMODE
 70
     1
  9
$FILLMODE
 70
     1
  9
$QTEXTMODE
 70
     0
  9
$MIRRTEXT
 70
     1
  9
$DRAGMODE
 70
     2
  9
$LTSCALE
 40
1.0
  9
$OSMODE
 70
     0
  9
$ATTMODE
 70
     1
  9
$TEXTSIZE
 40
4.5
  9
$TRACEWID
 40
0.05
  9
$TEXTSTYLE
  7
STANDARD
  9
$CLAYER
  8
L-ZISSEN
  9
$CELTYPE
  6
BYLAYER
  9
$CECOLOR
 62
   256
  9
$DIMSCALE
 40
1.0
  9
$DIMASZ
 40
2.0
  9
$DIMEXO
 40
2.0
  9
$DIMDLI
 40
0.38
  9
$DIMRND
 40
0.0
  9
$DIMDLE
 40
0.0
  9
$DIMEXE
 40
2.0
  9
$DIMTP
 40
0.0
  9
$DIMTM
 40
0.0
  9
$DIMTXT
 40
4.5
  9
$DIMCEN
 40
0.09
  9
$DIMTSZ
 40
0.0
  9
$DIMTOL
 70
     0
  9
$DIMLIM
 70
     0
  9
$DIMTIH
 70
     0
  9
$DIMTOH
 70
     0
  9
$DIMSE1
 70
     0
  9
$DIMSE2
 70
     0
  9
$DIMTAD
 70
     1
  9
$DIMZIN
 70
     0
  9
$DIMBLK
  1

  9
$DIMASO
 70
     0
  9
$DIMSHO
 70
     0
  9
$DIMPOST
  1

  9
$DIMAPOST
  1

  9
$DIMALT
 70
     0
  9
$DIMALTD
 70
     2
  9
$DIMALTF
 40
25.4
  9
$DIMLFAC
 40
1.0
  9
$DIMTOFL
 70
     1
  9
$DIMTVP
 40
0.0
  9
$DIMTIX
 70
     1
  9
$DIMSOXD
 70
     0
  9
$DIMSAH
 70
     0
  9
$DIMBLK1
  1

  9
$DIMBLK2
  1

  9
$LUNITS
 70
     2
  9
$LUPREC
 70
     4
  9
$AXISMODE
 70
     0
  9
$AXISUNIT
 10
0.0
 20
0.0
  9
$SKETCHINC
 40
0.1
  9
$FILLETRAD
 40
8.0
  9
$AUNITS
 70
     0
  9
$AUPREC
 70
     0
  9
$MENU
  1
acad
  9
$ELEVATION
 40
0.0
  9
$THICKNESS
 40
0.0
  9
$LIMCHECK
 70
     0
  9
$BLIPMODE
 70
     1
  9
$CHAMFERA
 40
5.0
  9
$CHAMFERB
 40
5.0
  9
$SKPOLY
 70
     0
  9
$TDCREATE
 40
2449251.3285643519
  9
$TDUPDATE
 40
2449251.3285643519
  9
$TDINDWG
 40
0.0000000000
  9
$TDUSRTIMER
 40
0.0000000000
  9
$USRTIMER
 70
     1
  9
$ANGBASE
 50
0.0
  9
$ANGDIR
 70
     0
  9
$PDMODE
 70
     0
  9
$PDSIZE
 40
0.0
  9
$PLINEWID
 40
0.0
  9
$COORDS
 70
     2
  9
$SPLFRAME
 70
     0
  9
$SPLINETYPE
 70
     6
  9
$SPLINESEGS
 70
     8
  9
$ATTDIA
 70
     0
  9
$ATTREQ
 70
     1
  9
$HANDLING
 70
     0
  9
$HANDSEED
  5
0
  9
$SURFTAB1
 70
     6
  9
$SURFTAB2
 70
     6
  9
$SURFTYPE
 70
     6
  9
$SURFU
 70
     6
  9
$SURFV
 70
     6
  9
$FLATLAND
 70
     0
  9
$UCSNAME
  2

  9
$UCSORG
 10
0.0
 20
0.0
 30
0.0
  9
$UCSXDIR
 10
1.0
 20
0.0
 30
0.0
  9
$UCSYDIR
 10
0.0
 20
1.0
 30
0.0
  9
$USERI1
 70
     0
  9
$USERI2
 70
     0
  9
$USERI3
 70
     0
  9
$USERI4
 70
     0
  9
$USERI5
 70
     0
  9
$USERR1
 40
0.0
  9
$USERR2
 40
0.0
  9
$USERR3
 40
0.0
  9
$USERR4
 40
0.0
  9
$USERR5
 40
0.0
  9
$WORLDVIEW
 70
     1
  0
ENDSEC
  0
SECTION
  2
TABLES
  0
TABLE
  2
VPORT
 70
     2
  0
VPORT
  2
*ACTIVE
 70
     0
 10
0.0
 20
0.0
 11
1.0
 21
1.0
 12
336.888065
 22
217.529623
 13
0.0
 23
0.0
 14
5.0
 24
5.0
 15
0.0
 25
0.0
 16
0.0
 26
0.0
 36
1.0
 17
0.0
 27
0.0
 37
0.0
 40
435.059245
 41
1.5487
 42
50.0
 43
0.0
 44
0.0
 50
0.0
 51
0.0
 71
     0
 72
   100
 73
     1
 74
     0
 75
     0
 76
     0
 77
     0
 78
     0
  0
ENDTAB
  0
TABLE
  2
LTYPE
 70
     2
  0
LTYPE
  2
CONTINUOUS
 70
    64
  3
Solid line
 72
    65
 73
     0
 40
0.0
  0
LTYPE
  2
CENTER
 70
    64
  3
____ _ ____ _ ____ _ ____ _ 
 72
    65
 73
     4
 40
60.0
 49
45.0
 49
-5.0
 49
5.0
 49
-5.0
  0
ENDTAB
  0
TABLE
  2
LAYER
 70
     3
  0
LAYER
  2
0
 70
     0
 62
     7
  6
CONTINUOUS
  0
LAYER
  2
L-ZISSEN
 70
    64
 62
     7
  6
CONTINUOUS
  0
LAYER
  2
L-TYUSIN
 70
    64
 62
     1
  6
CENTER
  0
ENDTAB
  0
TABLE
  2
STYLE
 70
     1
  0
STYLE
  2
STANDARD
 70
    64
 40
0.0
 41
1.0
 50
0.0
 71
     0
 42
4.5
  3
txt
  4

  0
ENDTAB
  0
TABLE
  2
VIEW
 70
     0
  0
ENDTAB
  0
TABLE
  2
UCS
 70
     0
  0
ENDTAB
  0
TABLE
  2
DWGMGR
 70
     0
  0
ENDTAB
  0
ENDSEC
  0
SECTION
  2
BLOCKS
  0
ENDSEC
  0
SECTION
  2
ENTITIES
  0
LINE
  8
L-ZISSEN
 10
81.8
 20
120.0
 30
0.0
 11
81.8
 21
102.0
 31
0.0
  0
ARC
  8
L-ZISSEN
 10
64.0
 20
100.0
 30
0.0
 40
3.5
 50
90.0
 51
270.0
  0
LINE
  8
L-ZISSEN
 10
64.0
 20
96.5
 30
0.0
 11
70.999998
 21
96.5
 31
0.0
  0
LINE
  8
L-TYUSIN
 10
67.5
 20
106.0
 30
0.0
 11
67.5
 21
94.0
 31
0.0
  0
LINE
  8
L-ZISSEN
 10
70.999998
 20
103.5
 30
0.0
 11
64.0
 21
103.5
 31
0.0
  0
LINE
  8
L-TYUSIN
 10
57.5
 20
100.0
 30
0.0
 11
77.5
 21
100.0
 31
0.0
  0
ARC
  8
L-ZISSEN
 10
71.0
 20
100.0
 30
0.0
 40
3.5
 50
270.0
 51
336.104492
  0
LINE
  8
L-TYUSIN
 10
300.0
 20
100.0
 30
0.0
 11
286.8
 21
100.0
 31
0.0
  0
LINE
  8
L-ZISSEN
 10
67.0
 20
79.5
 30
0.0
 11
54.0
 21
79.5
 31
0.0
  0
LINE
  8
L-ZISSEN
 10
54.0
 20
120.5
 30
0.0
 11
81.5
 21
120.5
 31
0.0
  0
LINE
  8
L-ZISSEN
 10
54.0
 20
79.5
 30
0.0
 11
54.0
 21
120.5
 31
0.0
  0
LINE
  8
L-ZISSEN
 10
291.8
 20
79.5
 30
0.0
 11
291.8
 21
120.5
 31
0.0
  0
LINE
  8
L-ZISSEN
 10
295.0
 20
120.5
 30
0.0
 11
295.0
 21
79.5
 31
0.0
  0
LINE
  8
L-TYUSIN
 10
240.0
 20
134.0
 30
0.0
 11
260.0
 21
134.0
 31
0.0
  0
LINE
  8
L-TYUSIN
 10
224.930677
 20
79.0
 30
0.0
 11
273.225819
 21
79.0
 31
0.0
  0
LINE
  8
L-TYUSIN
 10
133.5
 20
134.0
 30
0.0
 11
143.5
 21
134.0
 31
0.0
  0
LINE
  8
L-ZISSEN
 10
274.0
 20
120.5
 30
0.0
 11
274.0
 21
133.0
 31
0.0
  0
LINE
  8
L-ZISSEN
 10
226.0
 20
120.5
 30
0.0
 11
226.0
 21
133.0
 31
0.0
  0
LINE
  8
L-ZISSEN
 10
122.5
 20
143.0
 30
0.0
 11
138.5
 21
143.0
 31
0.0
  0
LINE
  8
L-ZISSEN
 10
278.0
 20
120.5
 30
0.0
 11
278.0
 21
79.5
 31
0.0
  0
LINE
  8
L-ZISSEN
 10
278.0
 20
79.5
 30
0.0
 11
278.0
 21
120.5
 31
0.0
  0
LINE
  8
L-ZISSEN
 10
133.0
 20
44.0
 30
0.0
 11
132.0
 21
43.0
 31
0.0
  0
LINE
  8
L-ZISSEN
 10
87.0
 20
44.0
 30
0.0
 11
88.0
 21
43.0
 31
0.0
  0
LINE
  8
L-ZISSEN
 10
123.5
 20
39.0
 30
0.0
 11
96.5
 21
39.0
 31
0.0
  0
LINE
  8
L-ZISSEN
 10
238.5
 20
39.0
 30
0.0
 11
261.5
 21
39.0
 31
0.0
  0
LINE
  8
L-ZISSEN
 10
227.0
 20
120.5
 30
0.0
 11
217.0
 21
120.5
 31
0.0
  0
LINE
  8
L-ZISSEN
 10
270.5
 20
44.5
 30
0.0
 11
229.5
 21
44.5
 31
0.0
  0
LINE
  8
L-ZISSEN
 10
270.0
 20
44.5
 30
0.0
 11
270.0
 21
38.2
 31
0.0
  0
LINE
  8
L-ZISSEN
 10
261.5
 20
38.2
 30
0.0
 11
261.5
 21
44.5
 31
0.0
  0
LINE
  8
L-ZISSEN
 10
270.0
 20
38.2
 30
0.0
 11
261.5
 21
38.2
 31
0.0
  0
LINE
  8
L-ZISSEN
 10
230.0
 20
38.2
 30
0.0
 11
238.5
 21
38.2
 31
0.0
  0
LINE
  8
L-ZISSEN
 10
238.5
 20
38.2
 30
0.0
 11
238.5
 21
44.5
 31
0.0
  0
LINE
  8
L-ZISSEN
 10
230.0
 20
44.5
 30
0.0
 11
230.0
 21
38.2
 31
0.0
  0
LINE
  8
L-ZISSEN
 10
276.5
 20
60.056835
 30
0.0
 11
270.5
 21
60.056835
 31
0.0
  0
LINE
  8
L-ZISSEN
 10
295.0
 20
79.5
 30
0.0
 11
270.5
 21
79.5
 31
0.0
  0
LINE
  8
L-ZISSEN
 10
276.5
 20
60.056835
 30
0.0
 11
276.5
 21
79.5
 31
0.0
  0
LINE
  8
L-ZISSEN
 10
295.0
 20
120.5
 30
0.0
 11
273.0
 21
120.5
 31
0.0
  0
LINE
  8
L-ZISSEN
 10
253.0
 20
108.291901
 30
0.0
 11
253.0
 21
102.0
 31
0.0
  0
LINE
  8
L-ZISSEN
 10
256.0
 20
120.0
 30
0.0
 11
254.354534
 21
108.291901
 31
0.0
  0
LINE
  8
L-ZISSEN
 10
256.0
 20
120.0
 30
0.0
 11
256.0
 21
124.0
 31
0.0
  0
LINE
  8
L-ZISSEN
 10
244.0
 20
120.0
 30
0.0
 11
244.0
 21
124.0
 31
0.0
  0
LINE
  8
L-ZISSEN
 10
273.0
 20
120.0
 30
0.0
 11
227.0
 21
120.0
 31
0.0
  0
LINE
  8
L-ZISSEN
 10
223.5
 20
60.056835
 30
0.0
 11
223.5
 21
79.5
 31
0.0
  0
LINE
  8
L-ZISSEN
 10
223.5
 20
60.056835
 30
0.0
 11
229.5
 21
60.056835
 31
0.0
  0
LINE
  8
L-ZISSEN
 10
217.0
 20
79.5
 30
0.0
 11
229.5
 21
79.5
 31
0.0
  0
LINE
  8
L-ZISSEN
 10
222.0
 20
120.5
 30
0.0
 11
222.0
 21
79.5
 31
0.0
  0
LINE
  8
L-ZISSEN
 10
229.5
 20
49.0
 30
0.0
 11
270.5
 21
49.0
 31
0.0
  0
LINE
  8
L-ZISSEN
 10
226.0
 20
124.0
 30
0.0
 11
274.0
 21
124.0
 31
0.0
  0
LINE
  8
L-ZISSEN
 10
229.5
 20
102.0
 30
0.0
 11
270.5
 21
102.0
 31
0.0
  0
LINE
  8
L-ZISSEN
 10
270.5
 20
102.0
 30
0.0
 11
270.5
 21
44.5
 31
0.0
  0
LINE
  8
L-ZISSEN
 10
270.5
 20
56.0
 30
0.0
 11
229.5
 21
56.0
 31
0.0
  0
LINE
  8
L-ZISSEN
 10
229.5
 20
44.5
 30
0.0
 11
229.5
 21
102.0
 31
0.0
  0
CIRCLE
  8
L-ZISSEN
 10
250.0
 20
79.0
 30
0.0
 40
16.0
  0
CIRCLE
  8
L-ZISSEN
 10
234.25
 20
96.75
 30
0.0
 40
4.25
  0
CIRCLE
  8
L-ZISSEN
 10
265.75
 20
96.75
 30
0.0
 40
4.25
  0
CIRCLE
  8
L-ZISSEN
 10
265.75
 20
61.25
 30
0.0
 40
4.25
  0
CIRCLE
  8
L-ZISSEN
 10
234.25
 20
61.25
 30
0.0
 40
4.25
  0
LINE
  8
L-TYUSIN
 10
250.0
 20
148.0
 30
0.0
 11
250.0
 21
34.0
 31
0.0
  0
LINE
  8
L-ZISSEN
 10
87.0
 20
44.5
 30
0.0
 11
133.0
 21
44.5
 31
0.0
  0
LINE
  8
L-ZISSEN
 10
88.0
 20
44.5
 30
0.0
 11
88.0
 21
38.2
 31
0.0
  0
LINE
  8
L-ZISSEN
 10
96.5
 20
38.2
 30
0.0
 11
96.5
 21
44.5
 31
0.0
  0
LINE
  8
L-ZISSEN
 10
88.0
 20
38.2
 30
0.0
 11
96.5
 21
38.2
 31
0.0
  0
LINE
  8
L-ZISSEN
 10
74.2
 20
101.0
 30
0.0
 11
74.2
 21
92.5
 31
0.0
  0
LINE
  8
L-ZISSEN
 10
74.2
 20
63.0
 30
0.0
 11
67.0
 21
63.0
 31
0.0
  0
LINE
  8
L-ZISSEN
 10
87.0
 20
102.0
 30
0.0
 11
78.0
 21
102.0
 31
0.0
  0
LINE
  8
L-ZISSEN
 10
74.2
 20
95.0
 30
0.0
 11
67.0
 21
95.0
 31
0.0
  0
LINE
  8
L-ZISSEN
 10
78.0
 20
101.0
 30
0.0
 11
74.2
 21
101.0
 31
0.0
  0
LINE
  8
L-ZISSEN
 10
74.2
 20
92.5
 30
0.0
 11
78.0
 21
92.5
 31
0.0
  0
LINE
  8
L-ZISSEN
 10
78.0
 20
102.0
 30
0.0
 11
78.0
 21
56.0
 31
0.0
  0
LINE
  8
L-ZISSEN
 10
67.0
 20
63.0
 30
0.0
 11
67.0
 21
95.0
 31
0.0
  0
CIRCLE
  8
L-ZISSEN
 10
92.25
 20
115.75
 30
0.0
 40
4.25
  0
LINE
  8
L-ZISSEN
 10
86.0
 20
102.0
 30
0.0
 11
86.0
 21
108.291901
 31
0.0
  0
LINE
  8
L-ZISSEN
 10
82.336967
 20
120.0
 30
0.0
 11
83.982433
 21
108.291901
 31
0.0
  0
ARC
  8
L-ZISSEN
 10
106.367497
 20
76.5
 30
0.0
 40
3.0
 50
90.0
 51
218.682187
  0
LINE
  8
L-ZISSEN
 10
88.0
 20
69.0
 30
0.0
 11
88.0
 21
79.5
 31
0.0
  0
ARC
  8
L-ZISSEN
 10
97.0
 20
69.0
 30
0.0
 40
9.0
 50
180.0
 51
38.682191
  0
LINE
  8
L-ZISSEN
 10
85.0
 20
56.095445
 30
0.0
 11
85.0
 21
102.0
 31
0.0
  0
LINE
  8
L-ZISSEN
 10
133.0
 20
44.0
 30
0.0
 11
133.0
 21
56.0
 31
0.0
  0
LINE
  8
L-ZISSEN
 10
87.0
 20
49.0
 30
0.0
 11
133.0
 21
49.0
 31
0.0
  0
LINE
  8
L-ZISSEN
 10
87.0
 20
56.0
 30
0.0
 11
87.0
 21
44.0
 31
0.0
  0
LINE
  8
L-ZISSEN
 10
87.0
 20
120.5
 30
0.0
 11
133.0
 21
120.5
 31
0.0
  0
LINE
  8
L-ZISSEN
 10
87.0
 20
79.5
 30
0.0
 11
87.0
 21
133.0
 31
0.0
  0
LINE
  8
L-ZISSEN
 10
133.0
 20
79.5
 30
0.0
 11
87.0
 21
79.5
 31
0.0
  0
LINE
  8
L-ZISSEN
 10
81.5
 20
120.0
 30
0.0
 11
87.0
 21
120.0
 31
0.0
  0
LINE
  8
L-ZISSEN
 10
81.5
 20
133.0
 30
0.0
 11
81.5
 21
120.0
 31
0.0
  0
LINE
  8
L-ZISSEN
 10
138.5
 20
124.0
 30
0.0
 11
81.5
 21
124.0
 31
0.0
  0
LINE
  8
L-TYUSIN
 10
110.0
 20
144.0
 30
0.0
 11
110.0
 21
34.0
 31
0.0
  0
LINE
  8
L-TYUSIN
 10
62.0
 20
79.0
 30
0.0
 11
158.0
 21
79.0
 31
0.0
  0
LINE
  8
L-ZISSEN
 10
87.0
 20
108.291901
 30
0.0
 11
83.982433
 21
108.291901
 31
0.0
  0
ARC
  8
L-ZISSEN
 10
71.0
 20
100.0
 30
0.0
 40
3.5
 50
16.60155
 51
90.0
  0
LINE
  8
L-ZISSEN
 10
123.5
 20
38.2
 30
0.0
 11
132.0
 21
38.2
 31
0.0
  0
LINE
  8
L-ZISSEN
 10
123.5
 20
44.5
 30
0.0
 11
123.5
 21
38.2
 31
0.0
  0
LINE
  8
L-ZISSEN
 10
132.0
 20
38.2
 30
0.0
 11
132.0
 21
44.5
 31
0.0
  0
LINE
  8
L-ZISSEN
 10
78.0
 20
57.0
 30
0.0
 11
74.2
 21
57.0
 31
0.0
  0
LINE
  8
L-ZISSEN
 10
74.2
 20
65.5
 30
0.0
 11
78.0
 21
65.5
 31
0.0
  0
LINE
  8
L-ZISSEN
 10
74.2
 20
57.0
 30
0.0
 11
74.2
 21
65.5
 31
0.0
  0
LINE
  8
L-ZISSEN
 10
87.0
 20
56.0
 30
0.0
 11
78.0
 21
56.0
 31
0.0
  0
LINE
  8
L-ZISSEN
 10
133.0
 20
79.5
 30
0.0
 11
133.0
 21
133.0
 31
0.0
  0
CIRCLE
  8
L-ZISSEN
 10
127.75
 20
115.75
 30
0.0
 40
4.25
  0
CIRCLE
  8
L-ZISSEN
 10
92.25
 20
84.25
 30
0.0
 40
4.25
  0
CIRCLE
  8
L-ZISSEN
 10
127.75
 20
84.25
 30
0.0
 40
4.25
  0
LINE
  8
L-ZISSEN
 10
138.5
 20
143.0
 30
0.0
 11
138.5
 21
120.0
 31
0.0
  0
LINE
  8
L-ZISSEN
 10
138.5
 20
120.0
 30
0.0
 11
133.0
 21
120.0
 31
0.0
  0
LINE
  8
L-ZISSEN
 10
137.663033
 20
120.0
 30
0.0
 11
136.017567
 21
108.291901
 31
0.0
  0
LINE
  8
L-ZISSEN
 10
133.0
 20
108.291901
 30
0.0
 11
136.017567
 21
108.291901
 31
0.0
  0
LINE
  8
L-ZISSEN
 10
134.0
 20
102.0
 30
0.0
 11
134.0
 21
108.291901
 31
0.0
  0
LINE
  8
L-ZISSEN
 10
138.2
 20
120.0
 30
0.0
 11
138.2
 21
102.0
 31
0.0
  0
LINE
  8
L-ZISSEN
 10
166.0
 20
120.5
 30
0.0
 11
138.5
 21
120.5
 31
0.0
  0
LINE
  8
L-ZISSEN
 10
166.0
 20
79.5
 30
0.0
 11
166.0
 21
120.5
 31
0.0
  0
LINE
  8
L-ZISSEN
 10
149.000002
 20
103.5
 30
0.0
 11
156.0
 21
103.5
 31
0.0
  0
ARC
  8
L-ZISSEN
 10
156.0
 20
100.0
 30
0.0
 40
3.5
 50
270.0
 51
90.0
  0
LINE
  8
L-TYUSIN
 10
162.5
 20
100.0
 30
0.0
 11
142.5
 21
100.0
 31
0.0
  0
LINE
  8
L-TYUSIN
 10
152.5
 20
106.0
 30
0.0
 11
152.5
 21
94.0
 31
0.0
  0
LINE
  8
L-ZISSEN
 10
156.0
 20
96.5
 30
0.0
 11
149.000002
 21
96.5
 31
0.0
  0
LINE
  8
L-ZISSEN
 10
133.0
 20
102.0
 30
0.0
 11
142.0
 21
102.0
 31
0.0
  0
LINE
  8
L-ZISSEN
 10
145.8
 20
95.0
 30
0.0
 11
153.0
 21
95.0
 31
0.0
  0
LINE
  8
L-ZISSEN
 10
153.0
 20
63.0
 30
0.0
 11
153.0
 21
95.0
 31
0.0
  0
LINE
  8
L-ZISSEN
 10
145.8
 20
63.0
 30
0.0
 11
153.0
 21
63.0
 31
0.0
  0
LINE
  8
L-ZISSEN
 10
133.0
 20
56.0
 30
0.0
 11
142.0
 21
56.0
 31
0.0
  0
LINE
  8
L-ZISSEN
 10
135.0
 20
56.095445
 30
0.0
 11
135.0
 21
102.0
 31
0.0
  0
LINE
  8
L-ZISSEN
 10
153.0
 20
79.5
 30
0.0
 11
166.0
 21
79.5
 31
0.0
  0
LINE
  8
L-ZISSEN
 10
245.645466
 20
108.291901
 30
0.0
 11
254.354534
 21
108.291901
 31
0.0
  0
LINE
  8
L-ZISSEN
 10
244.0
 20
120.0
 30
0.0
 11
245.645466
 21
108.291901
 31
0.0
  0
LINE
  8
L-ZISSEN
 10
247.0
 20
108.291901
 30
0.0
 11
247.0
 21
102.0
 31
0.0
  0
LINE
  8
L-ZISSEN
 10
117.0
 20
192.0
 30
0.0
 11
91.0
 21
192.0
 31
0.0
  0
LINE
  8
L-ZISSEN
 10
117.0
 20
248.0
 30
0.0
 11
91.0
 21
248.0
 31
0.0
  0
LINE
  8
L-TYUSIN
  6
CENTER
 62
     1
 10
62.0
 20
220.0
 30
0.0
 11
158.0
 21
220.0
 31
0.0
  0
LINE
  8
L-ZISSEN
 10
334.0
 20
79.5
 30
0.0
 11
446.0
 21
79.5
 31
0.0
  0
LINE
  8
L-ZISSEN
 10
415.0
 20
56.095445
 30
0.0
 11
415.0
 21
120.5
 31
0.0
  0
LINE
  8
L-ZISSEN
 10
413.0
 20
56.0
 30
0.0
 11
422.0
 21
56.0
 31
0.0
  0
LINE
  8
L-ZISSEN
 10
425.8
 20
63.0
 30
0.0
 11
433.0
 21
63.0
 31
0.0
  0
LINE
  8
L-ZISSEN
 10
433.0
 20
63.0
 30
0.0
 11
433.0
 21
79.5
 31
0.0
  0
LINE
  8
L-ZISSEN
 10
436.0
 20
96.5
 30
0.0
 11
429.000002
 21
96.5
 31
0.0
  0
LINE
  8
L-TYUSIN
 10
432.5
 20
106.0
 30
0.0
 11
432.5
 21
94.0
 31
0.0
  0
LINE
  8
L-TYUSIN
 10
442.5
 20
100.0
 30
0.0
 11
422.5
 21
100.0
 31
0.0
  0
ARC
  8
L-ZISSEN
 10
436.0
 20
100.0
 30
0.0
 40
3.5
 50
270.0
 51
90.0
  0
LINE
  8
L-ZISSEN
 10
429.000002
 20
103.5
 30
0.0
 11
436.0
 21
103.5
 31
0.0
  0
LINE
  8
L-ZISSEN
 10
446.0
 20
79.5
 30
0.0
 11
446.0
 21
120.5
 31
0.0
  0
LINE
  8
L-ZISSEN
 10
446.0
 20
120.5
 30
0.0
 11
334.0
 21
120.5
 31
0.0
  0
LINE
  8
L-ZISSEN
 10
418.5
 20
133.0
 30
0.0
 11
418.5
 21
120.5
 31
0.0
  0
CIRCLE
  8
L-ZISSEN
 10
407.75
 20
84.25
 30
0.0
 40
4.25
  0
CIRCLE
  8
L-ZISSEN
 10
372.25
 20
84.25
 30
0.0
 40
4.25
  0
CIRCLE
  8
L-ZISSEN
 10
407.75
 20
115.75
 30
0.0
 40
4.25
  0
LINE
  8
L-ZISSEN
 10
413.0
 20
120.5
 30
0.0
 11
413.0
 21
133.0
 31
0.0
  0
LINE
  8
L-ZISSEN
 10
367.0
 20
56.0
 30
0.0
 11
358.0
 21
56.0
 31
0.0
  0
LINE
  8
L-TYUSIN
 10
342.0
 20
79.0
 30
0.0
 11
438.0
 21
79.0
 31
0.0
  0
LINE
  8
L-TYUSIN
 10
390.0
 20
147.0
 30
0.0
 11
390.0
 21
34.0
 31
0.0
  0
LINE
  8
L-ZISSEN
 10
361.5
 20
124.0
 30
0.0
 11
418.5
 21
124.0
 31
0.0
  0
LINE
  8
L-ZISSEN
 10
361.5
 20
143.0
 30
0.0
 11
361.5
 21
120.5
 31
0.0
  0
LINE
  8
L-ZISSEN
 10
367.0
 20
120.5
 30
0.0
 11
367.0
 21
133.0
 31
0.0
  0
LINE
  8
L-ZISSEN
 10
367.0
 20
49.0
 30
0.0
 11
413.0
 21
49.0
 31
0.0
  0
LINE
  8
L-ZISSEN
 10
365.0
 20
56.095445
 30
0.0
 11
365.0
 21
120.5
 31
0.0
  0
ARC
  8
L-ZISSEN
 10
377.0
 20
69.0
 30
0.0
 40
9.0
 50
180.0
 51
38.682191
  0
LINE
  8
L-ZISSEN
 10
368.0
 20
69.0
 30
0.0
 11
368.0
 21
79.5
 31
0.0
  0
ARC
  8
L-ZISSEN
 10
386.367497
 20
76.5
 30
0.0
 40
3.0
 50
90.0
 51
218.682187
  0
CIRCLE
  8
L-ZISSEN
 10
372.25
 20
115.75
 30
0.0
 40
4.25
  0
LINE
  8
L-ZISSEN
 10
347.0
 20
63.0
 30
0.0
 11
347.0
 21
79.5
 31
0.0
  0
LINE
  8
L-ZISSEN
 10
354.2
 20
63.0
 30
0.0
 11
347.0
 21
63.0
 31
0.0
  0
LINE
  8
L-ZISSEN
 10
334.0
 20
79.5
 30
0.0
 11
334.0
 21
120.5
 31
0.0
  0
LINE
  8
L-TYUSIN
 10
337.5
 20
100.0
 30
0.0
 11
357.5
 21
100.0
 31
0.0
  0
LINE
  8
L-ZISSEN
 10
350.999998
 20
103.5
 30
0.0
 11
344.0
 21
103.5
 31
0.0
  0
LINE
  8
L-TYUSIN
 10
347.5
 20
106.0
 30
0.0
 11
347.5
 21
94.0
 31
0.0
  0
LINE
  8
L-ZISSEN
 10
344.0
 20
96.5
 30
0.0
 11
350.999998
 21
96.5
 31
0.0
  0
ARC
  8
L-ZISSEN
 10
344.0
 20
100.0
 30
0.0
 40
3.5
 50
90.0
 51
270.0
  0
ARC
  8
L-ZISSEN
 10
351.0
 20
100.0
 30
0.0
 40
3.5
 50
270.0
 51
90.0
  0
ARC
  8
L-ZISSEN
 10
429.0
 20
100.0
 30
0.0
 40
3.5
 50
90.0
 51
270.0
  0
LINE
  8
L-TYUSIN
 10
110.0
 20
256.2
 30
0.0
 11
110.0
 21
177.0
 31
0.0
  0
LINE
  8
L-ZISSEN
 10
166.0
 20
265.0
 30
0.0
 11
135.0
 21
265.0
 31
0.0
  0
LINE
  8
L-ZISSEN
 10
54.0
 20
261.8
 30
0.0
 11
54.0
 21
265.0
 31
0.0
  0
LINE
  8
L-ZISSEN
 10
166.0
 20
261.8
 30
0.0
 11
166.0
 21
265.0
 31
0.0
  0
LINE
  8
L-ZISSEN
 10
166.0
 20
261.8
 30
0.0
 11
138.2
 21
261.8
 31
0.0
  0
LINE
  8
L-ZISSEN
 10
138.2
 20
248.0
 30
0.0
 11
81.8
 21
248.0
 31
0.0
  0
LINE
  8
L-ZISSEN
 10
135.0
 20
265.0
 30
0.0
 11
135.0
 21
251.2
 31
0.0
  0
LINE
  8
L-ZISSEN
 10
135.0
 20
251.2
 30
0.0
 11
85.0
 21
251.2
 31
0.0
  0
LINE
  8
L-ZISSEN
 10
138.2
 20
261.8
 30
0.0
 11
138.2
 21
248.0
 31
0.0
  0
LINE
  8
L-ZISSEN
 10
85.0
 20
265.0
 30
0.0
 11
54.0
 21
265.0
 31
0.0
  0
LINE
  8
L-ZISSEN
 10
81.8
 20
261.8
 30
0.0
 11
81.8
 21
248.0
 31
0.0
  0
LINE
  8
L-ZISSEN
 10
85.0
 20
265.0
 30
0.0
 11
85.0
 21
251.2
 31
0.0
  0
LINE
  8
L-ZISSEN
 10
81.8
 20
261.8
 30
0.0
 11
54.0
 21
261.8
 31
0.0
  0
LINE
  8
L-ZISSEN
 10
87.0
 20
192.0
 30
0.0
 11
133.0
 21
192.0
 31
0.0
  0
LINE
  8
L-ZISSEN
 10
133.0
 20
248.0
 30
0.0
 11
133.0
 21
229.0
 31
0.0
  0
LINE
  8
L-ZISSEN
 10
96.5
 20
257.5
 30
0.0
 11
96.5
 21
251.2
 31
0.0
  0
LINE
  8
L-ZISSEN
 10
88.0
 20
257.5
 30
0.0
 11
96.5
 21
257.5
 31
0.0
  0
LINE
  8
L-ZISSEN
 10
88.0
 20
251.2
 30
0.0
 11
88.0
 21
257.5
 31
0.0
  0
LINE
  8
L-ZISSEN
 10
132.0
 20
251.2
 30
0.0
 11
132.0
 21
257.5
 31
0.0
  0
LINE
  8
L-ZISSEN
 10
132.0
 20
257.5
 30
0.0
 11
123.5
 21
257.5
 31
0.0
  0
LINE
  8
L-ZISSEN
 10
123.5
 20
257.5
 30
0.0
 11
123.5
 21
251.2
 31
0.0
  0
LINE
  8
L-TYUSIN
 10
67.5
 20
270.0
 30
0.0
 11
67.5
 21
256.8
 31
0.0
  0
LINE
  8
L-TYUSIN
 10
152.5
 20
270.0
 30
0.0
 11
152.5
 21
256.8
 31
0.0
  0
CIRCLE
  8
L-ZISSEN
 10
250.0
 20
134.0
 30
0.0
 40
4.283
  0
CIRCLE
  8
L-ZISSEN
 10
250.0
 20
79.0
 30
0.0
 40
7.475
  0
LINE
  8
L-ZISSEN
 10
133.0
 20
133.0
 30
0.0
 11
81.5
 21
133.0
 31
0.0
  0
LINE
  8
L-ZISSEN
 10
122.5
 20
143.0
 30
0.0
 11
122.5
 21
133.0
 31
0.0
  0
LINE
  8
L-ZISSEN
 10
118.5
 20
139.0
 30
0.0
 11
110.0
 21
139.0
 31
0.0
  0
ARC
  8
L-ZISSEN
 10
110.0
 20
133.0
 30
0.0
 40
6.0
 50
90.0
 51
180.0
  0
LINE
  8
L-ZISSEN
 10
122.5
 20
143.0
 30
0.0
 11
118.5
 21
139.0
 31
0.0
  0
LINE
  8
L-ZISSEN
 10
118.5
 20
139.0
 30
0.0
 11
118.5
 21
133.0
 31
0.0
  0
ARC
  8
L-ZISSEN
 10
250.0
 20
134.0
 30
0.0
 40
9.0
 50
0.0
 51
180.0
  0
LINE
  8
L-ZISSEN
 10
241.0
 20
134.0
 30
0.0
 11
241.0
 21
124.0
 31
0.0
  0
LINE
  8
L-ZISSEN
 10
259.0
 20
134.0
 30
0.0
 11
259.0
 21
124.0
 31
0.0
  0
LINE
  8
L-ZISSEN
 10
226.0
 20
133.0
 30
0.0
 11
241.0
 21
133.0
 31
0.0
  0
LINE
  8
L-ZISSEN
 10
259.0
 20
133.0
 30
0.0
 11
274.0
 21
133.0
 31
0.0
  0
LINE
  8
L-ZISSEN
 10
88.0
 20
133.0
 30
0.0
 11
88.0
 21
139.3
 31
0.0
  0
LINE
  8
L-ZISSEN
 10
96.5
 20
139.3
 30
0.0
 11
96.5
 21
133.0
 31
0.0
  0
LINE
  8
L-ZISSEN
 10
88.0
 20
139.3
 30
0.0
 11
96.5
 21
139.3
 31
0.0
  0
LINE
  8
L-ZISSEN
 10
123.5
 20
133.0
 30
0.0
 11
123.5
 21
139.3
 31
0.0
  0
LINE
  8
L-ZISSEN
 10
123.5
 20
139.3
 30
0.0
 11
132.0
 21
139.3
 31
0.0
  0
LINE
  8
L-ZISSEN
 10
132.0
 20
139.3
 30
0.0
 11
132.0
 21
133.0
 31
0.0
  0
LINE
  8
L-ZISSEN
 10
145.8
 20
57.0
 30
0.0
 11
145.8
 21
65.5
 31
0.0
  0
LINE
  8
L-ZISSEN
 10
145.8
 20
65.5
 30
0.0
 11
142.0
 21
65.5
 31
0.0
  0
LINE
  8
L-ZISSEN
 10
142.0
 20
57.0
 30
0.0
 11
145.8
 21
57.0
 31
0.0
  0
LINE
  8
L-ZISSEN
 10
142.0
 20
102.0
 30
0.0
 11
142.0
 21
56.0
 31
0.0
  0
ARC
  8
L-ZISSEN
 10
149.0
 20
100.0
 30
0.0
 40
3.5
 50
90.0
 51
163.39845
  0
LINE
  8
L-ZISSEN
 10
145.8
 20
92.5
 30
0.0
 11
142.0
 21
92.5
 31
0.0
  0
LINE
  8
L-ZISSEN
 10
142.0
 20
101.0
 30
0.0
 11
145.8
 21
101.0
 31
0.0
  0
LINE
  8
L-ZISSEN
 10
145.8
 20
101.0
 30
0.0
 11
145.8
 21
92.5
 31
0.0
  0
ARC
  8
L-ZISSEN
 10
149.0
 20
100.0
 30
0.0
 40
3.5
 50
203.895508
 51
270.0
  0
LINE
  8
L-ZISSEN
 10
412.0
 20
38.2
 30
0.0
 11
412.0
 21
44.5
 31
0.0
  0
LINE
  8
L-ZISSEN
 10
403.5
 20
44.5
 30
0.0
 11
403.5
 21
38.2
 31
0.0
  0
LINE
  8
L-ZISSEN
 10
403.5
 20
38.2
 30
0.0
 11
412.0
 21
38.2
 31
0.0
  0
LINE
  8
L-ZISSEN
 10
368.0
 20
38.2
 30
0.0
 11
376.5
 21
38.2
 31
0.0
  0
LINE
  8
L-ZISSEN
 10
376.5
 20
38.2
 30
0.0
 11
376.5
 21
44.5
 31
0.0
  0
LINE
  8
L-ZISSEN
 10
368.0
 20
44.5
 30
0.0
 11
368.0
 21
38.2
 31
0.0
  0
LINE
  8
L-ZISSEN
 10
367.0
 20
44.5
 30
0.0
 11
413.0
 21
44.5
 31
0.0
  0
LINE
  8
L-ZISSEN
 10
403.5
 20
39.0
 30
0.0
 11
376.5
 21
39.0
 31
0.0
  0
LINE
  8
L-ZISSEN
 10
367.0
 20
44.0
 30
0.0
 11
368.0
 21
43.0
 31
0.0
  0
LINE
  8
L-ZISSEN
 10
413.0
 20
44.0
 30
0.0
 11
412.0
 21
43.0
 31
0.0
  0
LINE
  8
L-ZISSEN
 10
354.2
 20
57.0
 30
0.0
 11
354.2
 21
65.5
 31
0.0
  0
LINE
  8
L-ZISSEN
 10
354.2
 20
65.5
 30
0.0
 11
358.0
 21
65.5
 31
0.0
  0
LINE
  8
L-ZISSEN
 10
358.0
 20
57.0
 30
0.0
 11
354.2
 21
57.0
 31
0.0
  0
LINE
  8
L-ZISSEN
 10
358.0
 20
79.5
 30
0.0
 11
358.0
 21
56.0
 31
0.0
  0
LINE
  8
L-ZISSEN
 10
422.0
 20
57.0
 30
0.0
 11
425.8
 21
57.0
 31
0.0
  0
LINE
  8
L-ZISSEN
 10
425.8
 20
65.5
 30
0.0
 11
422.0
 21
65.5
 31
0.0
  0
LINE
  8
L-ZISSEN
 10
425.8
 20
57.0
 30
0.0
 11
425.8
 21
65.5
 31
0.0
  0
LINE
  8
L-ZISSEN
 10
422.0
 20
79.5
 30
0.0
 11
422.0
 21
56.0
 31
0.0
  0
LINE
  8
L-ZISSEN
 10
413.0
 20
44.0
 30
0.0
 11
413.0
 21
56.0
 31
0.0
  0
LINE
  8
L-ZISSEN
 10
367.0
 20
56.0
 30
0.0
 11
367.0
 21
44.0
 31
0.0
  0
LINE
  8
L-ZISSEN
 10
368.0
 20
139.3
 30
0.0
 11
368.0
 21
133.0
 31
0.0
  0
LINE
  8
L-ZISSEN
 10
376.5
 20
139.3
 30
0.0
 11
368.0
 21
139.3
 31
0.0
  0
LINE
  8
L-ZISSEN
 10
376.5
 20
133.0
 30
0.0
 11
376.5
 21
139.3
 31
0.0
  0
LINE
  8
L-ZISSEN
 10
412.0
 20
139.3
 30
0.0
 11
403.5
 21
139.3
 31
0.0
  0
LINE
  8
L-ZISSEN
 10
403.5
 20
139.3
 30
0.0
 11
403.5
 21
133.0
 31
0.0
  0
LINE
  8
L-ZISSEN
 10
412.0
 20
133.0
 30
0.0
 11
412.0
 21
139.3
 31
0.0
  0
LINE
  8
L-ZISSEN
 10
381.5
 20
139.0
 30
0.0
 11
381.5
 21
133.0
 31
0.0
  0
LINE
  8
L-ZISSEN
 10
377.5
 20
143.0
 30
0.0
 11
381.5
 21
139.0
 31
0.0
  0
ARC
  8
L-ZISSEN
 10
390.0
 20
133.0
 30
0.0
 40
6.0
 50
360.0
 51
90.0
  0
LINE
  8
L-ZISSEN
 10
381.5
 20
139.0
 30
0.0
 11
390.0
 21
139.0
 31
0.0
  0
LINE
  8
L-ZISSEN
 10
377.5
 20
143.0
 30
0.0
 11
377.5
 21
133.0
 31
0.0
  0
LINE
  8
L-ZISSEN
 10
367.0
 20
133.0
 30
0.0
 11
418.5
 21
133.0
 31
0.0
  0
LINE
  8
L-ZISSEN
 10
377.5
 20
143.0
 30
0.0
 11
361.5
 21
143.0
 31
0.0
  0
LINE
  8
L-TYUSIN
 10
366.5
 20
134.0
 30
0.0
 11
356.5
 21
134.0
 31
0.0
  0
TEXT
  8
L-ZISSEN
 10
45.0
 20
305.0
 30
0.0
 40
4.5
  1
MODEL NO. : 263- 00- 0BM
  0
TEXT
  8
L-ZISSEN
 10
128.0
 20
309.0
 30
0.0
 40
4.5
  1
0
  0
TEXT
  8
L-ZISSEN
 10
128.0
 20
303.0
 30
0.0
 40
4.5
  1
1
  0
LINE
  8
L-ZISSEN
 10
85.0
 20
240.5
 30
0.0
 11
85.0
 21
225.454356
 31
0.0
  0
LINE
  8
L-ZISSEN
 10
74.2
 20
236.0
 30
0.0
 11
67.0
 21
236.0
 31
0.0
  0
LINE
  8
L-ZISSEN
 10
67.0
 20
236.0
 30
0.0
 11
67.0
 21
204.0
 31
0.0
  0
LINE
  8
L-ZISSEN
 10
78.0
 20
240.0
 30
0.0
 11
74.2
 21
240.0
 31
0.0
  0
LINE
  8
L-ZISSEN
 10
74.2
 20
231.5
 30
0.0
 11
78.0
 21
231.5
 31
0.0
  0
LINE
  8
L-ZISSEN
 10
74.2
 20
240.0
 30
0.0
 11
74.2
 21
231.5
 31
0.0
  0
LINE
  8
L-ZISSEN
 10
78.0
 20
199.5
 30
0.0
 11
78.0
 21
240.5
 31
0.0
  0
LINE
  8
L-ZISSEN
 10
74.2
 20
200.0
 30
0.0
 11
74.2
 21
208.5
 31
0.0
  0
LINE
  8
L-ZISSEN
 10
74.2
 20
208.5
 30
0.0
 11
78.0
 21
208.5
 31
0.0
  0
LINE
  8
L-ZISSEN
 10
78.0
 20
200.0
 30
0.0
 11
74.2
 21
200.0
 31
0.0
  0
LINE
  8
L-ZISSEN
 10
74.2
 20
204.0
 30
0.0
 11
67.0
 21
204.0
 31
0.0
  0
LINE
  8
L-ZISSEN
 10
87.0
 20
240.5
 30
0.0
 11
78.0
 21
240.5
 31
0.0
  0
LINE
  8
L-ZISSEN
 10
78.0
 20
199.5
 30
0.0
 11
87.0
 21
199.5
 31
0.0
  0
LINE
  8
L-ZISSEN
 10
87.0
 20
187.0
 30
0.0
 11
87.0
 21
214.02087
 31
0.0
  0
LINE
  8
L-ZISSEN
 10
138.5
 20
211.0
 30
0.0
 11
122.5
 21
211.0
 31
0.0
  0
LINE
  8
L-ZISSEN
 10
138.5
 20
229.0
 30
0.0
 11
122.5
 21
229.0
 31
0.0
  0
LINE
  8
L-ZISSEN
 10
133.0
 20
244.0
 30
0.0
 11
87.0
 21
244.0
 31
0.0
  0
LINE
  8
L-ZISSEN
 10
133.0
 20
196.0
 30
0.0
 11
87.0
 21
196.0
 31
0.0
  0
ARC
  8
L-ZISSEN
 10
87.5
 20
220.0
 30
0.0
 40
6.0
 50
94.780192
 51
265.219808
  0
LINE
  8
L-ZISSEN
 10
85.0
 20
214.545644
 30
0.0
 11
85.0
 21
199.5
 31
0.0
  0
LINE
  8
L-ZISSEN
 10
87.0
 20
225.97913
 30
0.0
 11
87.0
 21
248.0
 31
0.0
  0
ARC
  8
L-ZISSEN
 10
110.0
 20
220.0
 30
0.0
 40
6.0
 50
90.0
 51
270.0
  0
LINE
  8
L-ZISSEN
 10
110.0
 20
214.0
 30
0.0
 11
119.5
 21
214.0
 31
0.0
  0
LINE
  8
L-ZISSEN
 10
122.5
 20
211.0
 30
0.0
 11
122.5
 21
229.0
 31
0.0
  0
LINE
  8
L-ZISSEN
 10
138.5
 20
211.0
 30
0.0
 11
138.5
 21
229.0
 31
0.0
  0
LINE
  8
L-ZISSEN
 10
122.5
 20
211.0
 30
0.0
 11
119.5
 21
214.0
 31
0.0
  0
LINE
  8
L-ZISSEN
 10
122.5
 20
229.0
 30
0.0
 11
119.5
 21
226.0
 31
0.0
  0
LINE
  8
L-ZISSEN
 10
110.0
 20
226.0
 30
0.0
 11
119.5
 21
226.0
 31
0.0
  0
LINE
  8
L-ZISSEN
 10
119.5
 20
226.0
 30
0.0
 11
119.5
 21
214.0
 31
0.0
  0
LINE
  8
L-ZISSEN
 10
133.0
 20
211.0
 30
0.0
 11
133.0
 21
187.0
 31
0.0
  0
LINE
  8
L-ZISSEN
 10
145.8
 20
204.0
 30
0.0
 11
153.0
 21
204.0
 31
0.0
  0
LINE
  8
L-ZISSEN
 10
142.0
 20
200.0
 30
0.0
 11
145.8
 21
200.0
 31
0.0
  0
LINE
  8
L-ZISSEN
 10
145.8
 20
208.5
 30
0.0
 11
142.0
 21
208.5
 31
0.0
  0
LINE
  8
L-ZISSEN
 10
145.8
 20
200.0
 30
0.0
 11
145.8
 21
208.5
 31
0.0
  0
LINE
  8
L-ZISSEN
 10
142.0
 20
199.5
 30
0.0
 11
142.0
 21
240.5
 31
0.0
  0
LINE
  8
L-ZISSEN
 10
145.8
 20
240.0
 30
0.0
 11
145.8
 21
231.5
 31
0.0
  0
LINE
  8
L-ZISSEN
 10
145.8
 20
231.5
 30
0.0
 11
142.0
 21
231.5
 31
0.0
  0
LINE
  8
L-ZISSEN
 10
142.0
 20
240.0
 30
0.0
 11
145.8
 21
240.0
 31
0.0
  0
LINE
  8
L-ZISSEN
 10
153.0
 20
236.0
 30
0.0
 11
153.0
 21
204.0
 31
0.0
  0
LINE
  8
L-ZISSEN
 10
145.8
 20
236.0
 30
0.0
 11
153.0
 21
236.0
 31
0.0
  0
LINE
  8
L-ZISSEN
 10
133.0
 20
240.5
 30
0.0
 11
142.0
 21
240.5
 31
0.0
  0
LINE
  8
L-ZISSEN
 10
142.0
 20
199.5
 30
0.0
 11
133.0
 21
199.5
 31
0.0
  0
LINE
  8
L-ZISSEN
 10
135.0
 20
211.0
 30
0.0
 11
135.0
 21
199.5
 31
0.0
  0
LINE
  8
L-ZISSEN
 10
135.0
 20
240.5
 30
0.0
 11
135.0
 21
229.0
 31
0.0
  0
CIRCLE
  8
L-ZISSEN
 10
92.25
 20
235.75
 30
0.0
 40
4.25
  0
CIRCLE
  8
L-ZISSEN
 10
127.75
 20
235.75
 30
0.0
 40
4.25
  0
CIRCLE
  8
L-ZISSEN
 10
127.75
 20
204.25
 30
0.0
 40
4.25
  0
CIRCLE
  8
L-ZISSEN
 10
92.25
 20
204.25
 30
0.0
 40
4.25
  0
CIRCLE
  8
L-ZISSEN
 10
110.0
 20
100.0
 30
0.0
 40
2.067
  0
LINE
  8
L-ZISSEN
 10
88.0
 20
186.0
 30
0.0
 11
87.0
 21
187.0
 31
0.0
  0
LINE
  8
L-ZISSEN
 10
132.0
 20
186.0
 30
0.0
 11
133.0
 21
187.0
 31
0.0
  0
LINE
  8
L-ZISSEN
 10
96.5
 20
182.0
 30
0.0
 11
123.5
 21
182.0
 31
0.0
  0
LINE
  8
L-ZISSEN
 10
132.0
 20
187.5
 30
0.0
 11
132.0
 21
181.2
 31
0.0
  0
LINE
  8
L-ZISSEN
 10
132.0
 20
181.2
 30
0.0
 11
123.5
 21
181.2
 31
0.0
  0
LINE
  8
L-ZISSEN
 10
123.5
 20
181.2
 30
0.0
 11
123.5
 21
187.5
 31
0.0
  0
LINE
  8
L-ZISSEN
 10
96.5
 20
181.2
 30
0.0
 11
96.5
 21
187.5
 31
0.0
  0
LINE
  8
L-ZISSEN
 10
88.0
 20
181.2
 30
0.0
 11
96.5
 21
181.2
 31
0.0
  0
LINE
  8
L-ZISSEN
 10
87.0
 20
187.5
 30
0.0
 11
133.0
 21
187.5
 31
0.0
  0
LINE
  8
L-ZISSEN
 10
88.0
 20
187.5
 30
0.0
 11
88.0
 21
181.2
 31
0.0
  0
LINE
  8
L-ZISSEN
 10
216.5
 20
120.0
 30
0.0
 11
217.0
 21
120.5
 31
0.0
  0
LINE
  8
L-ZISSEN
 10
217.5
 20
120.5
 30
0.0
 11
217.5
 21
79.5
 31
0.0
  0
LINE
  8
L-ZISSEN
 10
216.5
 20
80.0
 30
0.0
 11
217.0
 21
79.5
 31
0.0
  0
LINE
  8
L-ZISSEN
 10
212.0
 20
111.5
 30
0.0
 11
212.0
 21
88.5
 31
0.0
  0
LINE
  8
L-ZISSEN
 10
217.5
 20
120.0
 30
0.0
 11
211.2
 21
120.0
 31
0.0
  0
LINE
  8
L-ZISSEN
 10
211.2
 20
111.5
 30
0.0
 11
217.5
 21
111.5
 31
0.0
  0
LINE
  8
L-ZISSEN
 10
211.2
 20
120.0
 30
0.0
 11
211.2
 21
111.5
 31
0.0
  0
LINE
  8
L-ZISSEN
 10
211.2
 20
80.0
 30
0.0
 11
211.2
 21
88.5
 31
0.0
  0
LINE
  8
L-ZISSEN
 10
211.2
 20
88.5
 30
0.0
 11
217.5
 21
88.5
 31
0.0
  0
LINE
  8
L-ZISSEN
 10
217.5
 20
80.0
 30
0.0
 11
211.2
 21
80.0
 31
0.0
  0
SOLID
  8
L-ZISSEN
 10
154.048497
 20
77.264556
 30
0.0
 11
154.554668
 21
77.698417
 31
0.0
 12
153.0
 22
79.0
 32
0.0
 13
153.0
 23
79.0
 33
0.0
  0
LINE
  8
L-ZISSEN
 10
154.301583
 20
77.481487
 30
0.0
 11
165.0
 21
65.0
 31
0.0
  0
LINE
  8
L-ZISSEN
 10
165.0
 20
65.0
 30
0.0
 11
167.0
 21
65.0
 31
0.0
  0
TEXT
  8
L-ZISSEN
 10
169.0
 20
62.75
 30
0.0
 40
4.5
  1
IN
  0
TEXT
  8
L-ZISSEN
 10
170.0
 20
55.0
 30
0.0
 40
4.5
  1
Rc 1/4
  0
TEXT
  8
L-ZISSEN
 10
170.0
 20
45.0
 30
0.0
 40
4.5
  1
Rc 3/8
  0
TEXT
  8
L-ZISSEN
 10
170.0
 20
35.0
 30
0.0
 40
4.5
  1
Rc 1/2
  0
TEXT
  8
L-ZISSEN
 10
111.0
 20
312.0
 30
0.0
 40
4.5
  1
2
  0
TEXT
  8
L-ZISSEN
 10
111.0
 20
305.0
 30
0.0
 40
4.5
  1
3
  0
TEXT
  8
L-ZISSEN
 10
111.0
 20
298.0
 30
0.0
 40
4.5
  1
4
  0
LINE
  8
L-ZISSEN
 10
227.0
 20
120.5
 30
0.0
 11
227.0
 21
120.0
 31
0.0
  0
LINE
  8
L-ZISSEN
 10
273.0
 20
120.5
 30
0.0
 11
273.0
 21
120.0
 31
0.0
  0
LINE
  8
L-ZISSEN
 10
270.0
 20
139.3
 30
0.0
 11
270.0
 21
133.0
 31
0.0
  0
LINE
  8
L-ZISSEN
 10
261.5
 20
139.3
 30
0.0
 11
270.0
 21
139.3
 31
0.0
  0
LINE
  8
L-ZISSEN
 10
261.5
 20
133.0
 30
0.0
 11
261.5
 21
139.3
 31
0.0
  0
LINE
  8
L-ZISSEN
 10
230.0
 20
139.3
 30
0.0
 11
238.5
 21
139.3
 31
0.0
  0
LINE
  8
L-ZISSEN
 10
238.5
 20
139.3
 30
0.0
 11
238.5
 21
133.0
 31
0.0
  0
LINE
  8
L-ZISSEN
 10
230.0
 20
133.0
 30
0.0
 11
230.0
 21
139.3
 31
0.0
  0
ENDSEC
  0
EOF
