  0
SECTION
  2
HEADER
  9
$ACADVER
  1
AC1006
  9
$INSBASE
 10
0.0
 20
0.0
 30
0.0
  9
$EXTMIN
 10
0.000000
 20
0.000000
  9
$EXTMAX
 10
10.000000
 20
10.000000
  9
$LIMMIN
 10
0.0
 20
0.0
  9
$LIMMAX
 10
12.0
 20
9.0
  9
$ORTHOMODE
 70
     0
  9
$REGENMODE
 70
     1
  9
$FILLMODE
 70
     1
  9
$QTEXTMODE
 70
     0
  9
$MIRRTEXT
 70
     1
  9
$DRAGMODE
 70
     2
  9
$LTSCALE
 40
10.000000
  9
$OSMODE
 70
     0
  9
$ATTMODE
 70
     1
  9
$TEXTSIZE
 40
0.2
  9
$TRACEWID
 40
0.05
  9
$TEXTSTYLE
  7
STANDARD
  9
$CLAYER
  8
0
  9
$CELTYPE
  6
BYLAYER
  9
$CECOLOR
 62
   256
  9
$DIMSCALE
 40
1.0
  9
$DIMASZ
 40
0.18
  9
$DIMEXO
 40
0.0625
  9
$DIMDLI
 40
0.38
  9
$DIMRND
 40
0.0
  9
$DIMDLE
 40
0.0
  9
$DIMEXE
 40
0.18
  9
$DIMTP
 40
0.0
  9
$DIMTM
 40
0.0
  9
$DIMTXT
 40
0.18
  9
$DIMCEN
 40
0.09
  9
$DIMTSZ
 40
0.0
  9
$DIMTOL
 70
     0
  9
$DIMLIM
 70
     0
  9
$DIMTIH
 70
     1
  9
$DIMTOH
 70
     1
  9
$DIMSE1
 70
     0
  9
$DIMSE2
 70
     0
  9
$DIMTAD
 70
     0
  9
$DIMZIN
 70
     0
  9
$DIMBLK
  1

  9
$DIMASO
 70
     1
  9
$DIMSHO
 70
     0
  9
$DIMPOST
  1

  9
$DIMAPOST
  1

  9
$DIMALT
 70
     0
  9
$DIMALTD
 70
     2
  9
$DIMALTF
 40
25.4
  9
$DIMLFAC
 40
1.0
  9
$DIMTOFL
 70
     0
  9
$DIMTVP
 40
0.0
  9
$DIMTIX
 70
     0
  9
$DIMSOXD
 70
     0
  9
$DIMSAH
 70
     0
  9
$DIMBLK1
  1

  9
$DIMBLK2
  1

  9
$LUNITS
 70
     2
  9
$LUPREC
 70
     4
  9
$AXISMODE
 70
     0
  9
$AXISUNIT
 10
0.0
 20
0.0
  9
$SKETCHINC
 40
0.1
  9
$FILLETRAD
 40
0.0
  9
$AUNITS
 70
     0
  9
$AUPREC
 70
     0
  9
$MENU
  1
acad
  9
$ELEVATION
 40
0.0
  9
$THICKNESS
 40
0.0
  9
$LIMCHECK
 70
     0
  9
$BLIPMODE
 70
     1
  9
$CHAMFERA
 40
0.0
  9
$CHAMFERB
 40
0.0
  9
$SKPOLY
 70
     0
  9
$TDCREATE
 40
2448751.5905787037
  9
$TDUPDATE
 40
2448751.5905787037
  9
$TDINDWG
 40
0.0000000000
  9
$TDUSRTIMER
 40
0.0000000000
  9
$USRTIMER
 70
     1
  9
$ANGBASE
 50
0.0
  9
$ANGDIR
 70
     0
  9
$PDMODE
 70
     0
  9
$PDSIZE
 40
0.0
  9
$PLINEWID
 40
0.0
  9
$COORDS
 70
     0
  9
$SPLFRAME
 70
     0
  9
$SPLINETYPE
 70
     6
  9
$SPLINESEGS
 70
     8
  9
$ATTDIA
 70
     0
  9
$ATTREQ
 70
     1
  9
$HANDLING
 70
     0
  9
$HANDSEED
  5
0
  9
$SURFTAB1
 70
     6
  9
$SURFTAB2
 70
     6
  9
$SURFTYPE
 70
     6
  9
$SURFU
 70
     6
  9
$SURFV
 70
     6
  9
$FLATLAND
 70
     0
  9
$UCSNAME
  2

  9
$UCSORG
 10
0.0
 20
0.0
 30
0.0
  9
$UCSXDIR
 10
1.0
 20
0.0
 30
0.0
  9
$UCSYDIR
 10
0.0
 20
1.0
 30
0.0
  9
$USERI1
 70
     0
  9
$USERI2
 70
     0
  9
$USERI3
 70
     0
  9
$USERI4
 70
     0
  9
$USERI5
 70
     0
  9
$USERR1
 40
0.0
  9
$USERR2
 40
0.0
  9
$USERR3
 40
0.0
  9
$USERR4
 40
0.0
  9
$USERR5
 40
0.0
  9
$WORLDVIEW
 70
     1
  0
ENDSEC
  0
SECTION
  2
TABLES
  0
TABLE
  2
VPORT
 70
     2
  0
VPORT
  2
*ACTIVE
 70
     0
 10
0.0
 20
0.0
 11
1.0
 21
1.0
 12
7.914286
 22
4.5
 13
0.0
 23
0.0
 14
1.0
 24
1.0
 15
0.0
 25
0.0
 16
0.0
 26
0.0
 36
1.0
 17
0.0
 27
0.0
 37
0.0
 40
9.0
 41
1.75873
 42
50.0
 43
0.0
 44
0.0
 50
0.0
 51
0.0
 71
     0
 72
   100
 73
     1
 74
     1
 75
     0
 76
     0
 77
     0
 78
     0
  0
ENDTAB
  0
TABLE
  2
LTYPE
 70
     9
  0
LTYPE
  2
CONTINUOUS
 70
    64
  3
実線
 72
    65
 73
     0
 40
0.0
  0
LTYPE
  2
DASHED
 70
    64
  3
__ __ __ __ __ __ __ __ __ __ __ __ __ __ __
 72
    65
 73
     2
 40
0.75
 49
0.5
 49
-0.25
  0
LTYPE
  2
HIDDEN
 70
    64
  3
_ _ _ _ _ _ _ _ _ _ _ _ _ _ _ _ _ _ _ _ _ _ _
 72
    65
 73
     2
 40
0.375
 49
0.25
 49
-0.125
  0
LTYPE
  2
CENTER
 70
    64
  3
____ _ ____ _ ____ _ ____ _ ____ _ ____ _ ____
 72
    65
 73
     4
 40
2.0
 49
1.25
 49
-0.25
 49
0.25
 49
-0.25
  0
LTYPE
  2
PHANTOM
 70
    64
  3
_____ _ _ _____ _ _ _____ _ _ _____ _ _ ____
 72
    65
 73
     6
 40
2.5
 49
1.25
 49
-0.25
 49
0.25
 49
-0.25
 49
0.25
 49
-0.25
  0
LTYPE
  2
DOT
 70
    64
  3
...............................................
 72
    65
 73
     2
 40
0.25
 49
0.0
 49
-0.25
  0
LTYPE
  2
DASHDOT
 70
    64
  3
__ . __ . __ . __ . __ . __ . __ . __ . __ . __
 72
    65
 73
     4
 40
1.0
 49
0.5
 49
-0.25
 49
0.0
 49
-0.25
  0
LTYPE
  2
DIVIDE
 70
    64
  3
__ . . __ . . __ . . __ . . __ . . __ . . __
 72
    65
 73
     6
 40
1.25
 49
0.5
 49
-0.25
 49
0.0
 49
-0.25
 49
0.0
 49
-0.25
  0
LTYPE
  2
BORDER
 70
    64
  3
__ __ . __ __ . __ __ . __ __ . __ __ . __ __
 72
    65
 73
     6
 40
1.75
 49
0.5
 49
-0.25
 49
0.5
 49
-0.25
 49
0.0
 49
-0.25
  0
ENDTAB
  0
TABLE
  2
LAYER
 70
     2
  0
LAYER
  2
0
 70
     0
 62
     7
  6
CONTINUOUS
  0
LAYER
  2
PV
 70
     0
 62
     7
  6
CONTINUOUS
  0
ENDTAB
  0
TABLE
  2
STYLE
 70
     3
  0
STYLE
  2
STANDARD
 70
     0
 40
0.0
 41
1.0
 50
0.0
 71
     0
 42
0.2
  3
txt
  4

  0
STYLE
  2
FONT1
 70
     0
 40
0.0
 41
1.0
 50
0.0
 71
     0
 42
0.2
  3
MONOTXT
  4

  0
STYLE
  2
FONT2
 70
     0
 40
0.0
 41
1.0
 50
0.0
 71
     0
 42
0.2
  3
MONOTXT
  4
BIGFONT
  0
ENDTAB
  0
TABLE
  2
VIEW
 70
     0
  0
ENDTAB
  0
TABLE
  2
UCS
 70
     0
  0
ENDTAB
  0
TABLE
  2
DWGMGR
 70
     0
  0
ENDTAB
  0
ENDSEC
  0
SECTION
  2
BLOCKS
  0
ENDSEC
  0
SECTION
  2
ENTITIES
  0
LINE
  8
PV
  6
CENTER
 62
     1
 10
3.990560E+002
 20
1.290000E+002
 30
0.000000E+000
 11
2.714630E+002
 21
1.290000E+002
 31
0.000000E+000
  0
LINE
  8
PV
 62
     7
 10
3.130000E+002
 20
1.000000E+002
 30
0.000000E+000
 11
3.450000E+002
 21
1.000000E+002
 31
0.000000E+000
  0
LINE
  8
PV
 62
     7
 10
3.130000E+002
 20
1.700000E+002
 30
0.000000E+000
 11
3.450000E+002
 21
1.700000E+002
 31
0.000000E+000
  0
LINE
  8
PV
 62
     7
 10
3.135000E+002
 20
1.825000E+002
 30
0.000000E+000
 11
3.445000E+002
 21
1.825000E+002
 31
0.000000E+000
  0
LINE
  8
PV
 62
     7
 10
3.130000E+002
 20
3.420000E+002
 30
0.000000E+000
 11
3.176000E+002
 21
3.420000E+002
 31
0.000000E+000
  0
LINE
  8
PV
 62
     7
 10
3.130000E+002
 20
3.940000E+002
 30
0.000000E+000
 11
3.450000E+002
 21
3.940000E+002
 31
0.000000E+000
  0
LINE
  8
PV
  6
CENTER
 62
     1
 10
3.930000E+002
 20
3.790000E+002
 30
0.000000E+000
 11
2.750000E+002
 21
3.790000E+002
 31
0.000000E+000
  0
LINE
  8
PV
 62
     7
 10
1.552000E+002
 20
9.400000E+001
 30
0.000000E+000
 11
1.288000E+002
 21
9.400000E+001
 31
0.000000E+000
  0
LINE
  8
PV
 62
     7
 10
1.620000E+002
 20
1.700000E+002
 30
0.000000E+000
 11
1.100000E+002
 21
1.700000E+002
 31
0.000000E+000
  0
LINE
  8
PV
 62
     7
 10
1.620000E+002
 20
1.000000E+002
 30
0.000000E+000
 11
1.000000E+002
 21
1.000000E+002
 31
0.000000E+000
  0
LINE
  8
PV
 62
     7
 10
1.620000E+002
 20
1.825000E+002
 30
0.000000E+000
 11
1.100000E+002
 21
1.825000E+002
 31
0.000000E+000
  0
LINE
  8
PV
 62
     7
 10
1.580000E+002
 20
1.500000E+002
 30
0.000000E+000
 11
1.000000E+002
 21
1.500000E+002
 31
0.000000E+000
  0
LINE
  8
PV
 62
     7
 10
1.243000E+002
 20
1.935000E+002
 30
0.000000E+000
 11
1.970000E+002
 21
1.935000E+002
 31
0.000000E+000
  0
LINE
  8
PV
 62
     7
 10
1.243000E+002
 20
2.195000E+002
 30
0.000000E+000
 11
1.595000E+002
 21
2.195000E+002
 31
0.000000E+000
  0
LINE
  8
PV
 62
     7
 10
1.254550E+002
 20
2.260000E+002
 30
0.000000E+000
 11
1.545450E+002
 21
2.260000E+002
 31
0.000000E+000
  0
LINE
  8
PV
 62
     7
 10
1.243000E+002
 20
2.240000E+002
 30
0.000000E+000
 11
1.557000E+002
 21
2.240000E+002
 31
0.000000E+000
  0
LINE
  8
PV
 62
     7
 10
1.100000E+002
 20
1.825000E+002
 30
0.000000E+000
 11
1.100000E+002
 21
1.500000E+002
 31
0.000000E+000
  0
LINE
  8
PV
 62
     7
 10
1.000000E+002
 20
1.500000E+002
 30
0.000000E+000
 11
1.000000E+002
 21
1.000000E+002
 31
0.000000E+000
  0
LINE
  8
PV
 62
     7
 10
1.016000E+002
 20
1.500000E+002
 30
0.000000E+000
 11
1.016000E+002
 21
1.000000E+002
 31
0.000000E+000
  0
CIRCLE
  8
PV
 62
     7
 10
1.250000E+002
 20
1.290000E+002
 30
0.000000E+000
 40
1.250000E+001
  0
LINE
  8
PV
  6
CENTER
 62
     1
 10
1.250000E+002
 20
1.088630E+002
 30
0.000000E+000
 11
1.250000E+002
 21
1.491370E+002
 31
0.000000E+000
  0
CIRCLE
  8
PV
 62
     7
 10
1.250000E+002
 20
1.290000E+002
 30
0.000000E+000
 40
1.047750E+001
  0
LINE
  8
PV
 62
     7
 10
1.141130E+002
 20
1.120000E+002
 30
0.000000E+000
 11
1.112260E+002
 21
1.070000E+002
 31
0.000000E+000
  0
LINE
  8
PV
 62
     7
 10
1.112260E+002
 20
1.070000E+002
 30
0.000000E+000
 11
1.141130E+002
 21
1.020000E+002
 31
0.000000E+000
  0
LINE
  8
PV
 62
     7
 10
1.141130E+002
 20
1.020000E+002
 30
0.000000E+000
 11
1.198870E+002
 21
1.020000E+002
 31
0.000000E+000
  0
LINE
  8
PV
 62
     7
 10
1.198870E+002
 20
1.020000E+002
 30
0.000000E+000
 11
1.227740E+002
 21
1.070000E+002
 31
0.000000E+000
  0
LINE
  8
PV
 62
     7
 10
1.227740E+002
 20
1.070000E+002
 30
0.000000E+000
 11
1.198870E+002
 21
1.120000E+002
 31
0.000000E+000
  0
LINE
  8
PV
 62
     7
 10
1.198870E+002
 20
1.120000E+002
 30
0.000000E+000
 11
1.141130E+002
 21
1.120000E+002
 31
0.000000E+000
  0
CIRCLE
  8
PV
 62
     7
 10
1.170000E+002
 20
1.070000E+002
 30
0.000000E+000
 40
3.000000E+000
  0
LINE
  8
PV
 62
     7
 10
1.288000E+002
 20
9.400000E+001
 30
0.000000E+000
 11
1.288000E+002
 21
1.000000E+002
 31
0.000000E+000
  0
LINE
  8
PV
 62
     7
 10
1.243000E+002
 20
2.240000E+002
 30
0.000000E+000
 11
1.243000E+002
 21
1.825000E+002
 31
0.000000E+000
  0
LINE
  8
PV
  6
CENTER
 62
     1
 10
1.400000E+002
 20
1.798220E+002
 30
0.000000E+000
 11
1.400000E+002
 21
2.312990E+002
 31
0.000000E+000
  0
LINE
  8
PV
 62
     7
 10
1.243000E+002
 20
2.240000E+002
 30
0.000000E+000
 11
1.254550E+002
 21
2.260000E+002
 31
0.000000E+000
  0
LINE
  8
PV
 62
     7
 10
3.130000E+002
 20
1.000000E+002
 30
0.000000E+000
 11
3.130000E+002
 21
1.700000E+002
 31
0.000000E+000
  0
LINE
  8
PV
 62
     7
 10
1.620000E+002
 20
1.825000E+002
 30
0.000000E+000
 11
1.620000E+002
 21
1.000000E+002
 31
0.000000E+000
  0
LINE
  8
PV
 62
     7
 10
1.610000E+002
 20
1.470000E+002
 30
0.000000E+000
 11
1.610000E+002
 21
1.030000E+002
 31
0.000000E+000
  0
LINE
  8
PV
 62
     7
 10
1.552000E+002
 20
9.400000E+001
 30
0.000000E+000
 11
1.552000E+002
 21
1.000000E+002
 31
0.000000E+000
  0
LINE
  8
PV
 62
     7
 10
1.610000E+002
 20
1.030000E+002
 30
0.000000E+000
 11
1.580000E+002
 21
1.000000E+002
 31
0.000000E+000
  0
LINE
  8
PV
 62
     7
 10
1.500000E+002
 20
1.371130E+002
 30
0.000000E+000
 11
1.550000E+002
 21
1.342260E+002
 31
0.000000E+000
  0
LINE
  8
PV
 62
     7
 10
1.550000E+002
 20
1.342260E+002
 30
0.000000E+000
 11
1.600000E+002
 21
1.371130E+002
 31
0.000000E+000
  0
LINE
  8
PV
 62
     7
 10
1.600000E+002
 20
1.371130E+002
 30
0.000000E+000
 11
1.600000E+002
 21
1.428870E+002
 31
0.000000E+000
  0
LINE
  8
PV
 62
     7
 10
1.600000E+002
 20
1.428870E+002
 30
0.000000E+000
 11
1.550000E+002
 21
1.457740E+002
 31
0.000000E+000
  0
LINE
  8
PV
 62
     7
 10
1.550000E+002
 20
1.457740E+002
 30
0.000000E+000
 11
1.500000E+002
 21
1.428870E+002
 31
0.000000E+000
  0
LINE
  8
PV
 62
     7
 10
1.500000E+002
 20
1.428870E+002
 30
0.000000E+000
 11
1.500000E+002
 21
1.371130E+002
 31
0.000000E+000
  0
CIRCLE
  8
PV
 62
     7
 10
1.550000E+002
 20
1.400000E+002
 30
0.000000E+000
 40
3.000000E+000
  0
LINE
  8
PV
 62
     7
 10
1.580000E+002
 20
1.500000E+002
 30
0.000000E+000
 11
1.610000E+002
 21
1.470000E+002
 31
0.000000E+000
  0
LINE
  8
PV
 62
     7
 10
2.899190E+002
 20
1.276560E+002
 30
0.000000E+000
 11
2.644100E+002
 21
1.069080E+002
 31
0.000000E+000
  0
TEXT
  8
PV
 62
     7
 10
2.377750E+002
 20
9.998600E+001
 30
0.000000E+000
 40
4.500000E+000
  1
Rc1/2
 41
7.466667E-001
  7
FONT1
  0
TEXT
  8
PV
 62
     7
 10
2.377751E+002
 20
1.088530E+002
 30
0.000000E+000
 40
4.500000E+000
  1
IN PORT
 41
7.619044E-001
  7
FONT1
  0
LINE
  8
PV
 62
     7
 10
2.644100E+002
 20
1.069080E+002
 30
0.000000E+000
 11
2.355860E+002
 21
1.069080E+002
 31
0.000000E+000
  0
LINE
  8
PV
 62
     7
 10
2.750000E+002
 20
1.470000E+002
 30
0.000000E+000
 11
2.750000E+002
 21
1.030000E+002
 31
0.000000E+000
  0
LINE
  8
PV
 62
     7
 10
2.914000E+002
 20
1.500000E+002
 30
0.000000E+000
 11
2.914000E+002
 21
1.000000E+002
 31
0.000000E+000
  0
LINE
  8
PV
 62
     7
 10
2.930000E+002
 20
1.500000E+002
 30
0.000000E+000
 11
2.930000E+002
 21
1.000000E+002
 31
0.000000E+000
  0
LINE
  8
PV
 62
     7
 10
2.780000E+002
 20
1.000000E+002
 30
0.000000E+000
 11
3.130000E+002
 21
1.000000E+002
 31
0.000000E+000
  0
ARC
  8
PV
 62
     7
 10
2.820000E+002
 20
1.070000E+002
 30
0.000000E+000
 40
3.000000E+000
 50
3.686990E+001
 51
3.231300E+002
  0
LINE
  8
PV
 62
     7
 10
2.844000E+002
 20
1.100000E+002
 30
0.000000E+000
 11
2.844000E+002
 21
1.040000E+002
 31
0.000000E+000
  0
LINE
  8
PV
 62
     7
 10
2.861000E+002
 20
1.020000E+002
 30
0.000000E+000
 11
2.861000E+002
 21
1.120000E+002
 31
0.000000E+000
  0
LINE
  8
PV
 62
     7
 10
2.750000E+002
 20
1.030000E+002
 30
0.000000E+000
 11
2.780000E+002
 21
1.000000E+002
 31
0.000000E+000
  0
LINE
  8
PV
 62
     7
 10
2.861000E+002
 20
1.020000E+002
 30
0.000000E+000
 11
2.914000E+002
 21
1.020000E+002
 31
0.000000E+000
  0
LINE
  8
PV
 62
     7
 10
2.861000E+002
 20
1.040000E+002
 30
0.000000E+000
 11
2.844000E+002
 21
1.040000E+002
 31
0.000000E+000
  0
LINE
  8
PV
 62
     7
 10
2.861000E+002
 20
1.120000E+002
 30
0.000000E+000
 11
2.914000E+002
 21
1.120000E+002
 31
0.000000E+000
  0
LINE
  8
PV
 62
     7
 10
2.861000E+002
 20
1.100000E+002
 30
0.000000E+000
 11
2.844000E+002
 21
1.100000E+002
 31
0.000000E+000
  0
LINE
  8
PV
 62
     7
 10
3.130000E+002
 20
1.500000E+002
 30
0.000000E+000
 11
2.930000E+002
 21
1.500000E+002
 31
0.000000E+000
  0
LINE
  8
PV
 62
     7
 10
2.861000E+002
 20
1.457740E+002
 30
0.000000E+000
 11
2.861000E+002
 21
1.342260E+002
 31
0.000000E+000
  0
POLYLINE
  8
PV
 62
     7
 66
     1
 10
0.0
 20
0.0
 30
0.0
  0
VERTEX
  8
PV
 62
     7
 10
2.901430E+002
 20
1.274090E+002
 30
0.000000E+000
  0
VERTEX
  8
PV
 62
     7
 10
2.896950E+002
 20
1.279030E+002
 30
0.000000E+000
  0
VERTEX
  8
PV
 62
     7
 10
2.914000E+002
 20
1.290000E+002
 30
0.000000E+000
  0
VERTEX
  8
PV
 62
     7
 10
2.901430E+002
 20
1.274090E+002
 30
0.000000E+000
  0
SEQEND
  8
PV
 62
     7
  0
LINE
  8
PV
 62
     7
 10
2.861000E+002
 20
1.342260E+002
 30
0.000000E+000
 11
2.914000E+002
 21
1.342260E+002
 31
0.000000E+000
  0
LINE
  8
PV
 62
     7
 10
2.930000E+002
 20
1.500000E+002
 30
0.000000E+000
 11
2.780000E+002
 21
1.500000E+002
 31
0.000000E+000
  0
ARC
  8
PV
 62
     7
 10
2.820000E+002
 20
1.430000E+002
 30
0.000000E+000
 40
3.000000E+000
 50
0.000000E+000
 51
3.231300E+002
  0
LINE
  8
PV
 62
     7
 10
2.780000E+002
 20
1.500000E+002
 30
0.000000E+000
 11
2.750000E+002
 21
1.470000E+002
 31
0.000000E+000
  0
LINE
  8
PV
 62
     7
 10
2.844000E+002
 20
1.430000E+002
 30
0.000000E+000
 11
2.844000E+002
 21
1.370000E+002
 31
0.000000E+000
  0
LINE
  8
PV
 62
     7
 10
2.861000E+002
 20
1.370000E+002
 30
0.000000E+000
 11
2.844000E+002
 21
1.370000E+002
 31
0.000000E+000
  0
LINE
  8
PV
 62
     7
 10
2.861000E+002
 20
1.430000E+002
 30
0.000000E+000
 11
2.844000E+002
 21
1.430000E+002
 31
0.000000E+000
  0
LINE
  8
PV
 62
     7
 10
2.861000E+002
 20
1.457740E+002
 30
0.000000E+000
 11
2.914000E+002
 21
1.457740E+002
 31
0.000000E+000
  0
LINE
  8
PV
 62
     7
 10
1.635000E+002
 20
2.225000E+002
 30
0.000000E+000
 11
1.635000E+002
 21
1.935000E+002
 31
0.000000E+000
  0
LINE
  8
PV
 62
     7
 10
1.650000E+002
 20
1.935000E+002
 30
0.000000E+000
 11
1.650000E+002
 21
2.225000E+002
 31
0.000000E+000
  0
LINE
  8
PV
 62
     7
 10
1.970000E+002
 20
1.935000E+002
 30
0.000000E+000
 11
1.970000E+002
 21
2.345000E+002
 31
0.000000E+000
  0
LINE
  8
PV
 62
     7
 10
1.557000E+002
 20
1.935000E+002
 30
0.000000E+000
 11
1.557000E+002
 21
1.825000E+002
 31
0.000000E+000
  0
LINE
  8
PV
 62
     7
 10
1.560000E+002
 20
1.903000E+002
 30
0.000000E+000
 11
1.560000E+002
 21
1.851000E+002
 31
0.000000E+000
  0
LINE
  8
PV
 62
     7
 10
1.560000E+002
 20
1.851000E+002
 30
0.000000E+000
 11
1.557000E+002
 21
1.851000E+002
 31
0.000000E+000
  0
LINE
  8
PV
 62
     7
 10
1.560000E+002
 20
1.903000E+002
 30
0.000000E+000
 11
1.557000E+002
 21
1.903000E+002
 31
0.000000E+000
  0
LINE
  8
PV
 62
     7
 10
1.595000E+002
 20
2.225000E+002
 30
0.000000E+000
 11
1.970000E+002
 21
2.225000E+002
 31
0.000000E+000
  0
LINE
  8
PV
 62
     7
 10
1.970000E+002
 20
2.383000E+002
 30
0.000000E+000
 11
1.790000E+002
 21
2.383000E+002
 31
0.000000E+000
  0
LINE
  8
PV
 62
     7
 10
1.970000E+002
 20
2.345000E+002
 30
0.000000E+000
 11
1.790000E+002
 21
2.345000E+002
 31
0.000000E+000
  0
LINE
  8
PV
 62
     7
 10
1.970000E+002
 20
2.430000E+002
 30
0.000000E+000
 11
1.790000E+002
 21
2.430000E+002
 31
0.000000E+000
  0
LINE
  8
PV
 62
     7
 10
1.811000E+002
 20
2.383000E+002
 30
0.000000E+000
 11
1.811000E+002
 21
2.345000E+002
 31
0.000000E+000
  0
LINE
  8
PV
 62
     7
 10
1.557000E+002
 20
2.240000E+002
 30
0.000000E+000
 11
1.557000E+002
 21
2.195000E+002
 31
0.000000E+000
  0
LINE
  8
PV
 62
     7
 10
1.595000E+002
 20
2.225000E+002
 30
0.000000E+000
 11
1.595000E+002
 21
2.195000E+002
 31
0.000000E+000
  0
LINE
  8
PV
 62
     7
 10
1.557000E+002
 20
2.240000E+002
 30
0.000000E+000
 11
1.545450E+002
 21
2.260000E+002
 31
0.000000E+000
  0
LINE
  8
PV
 62
     7
 10
1.790000E+002
 20
2.225000E+002
 30
0.000000E+000
 11
1.790000E+002
 21
2.345000E+002
 31
0.000000E+000
  0
LINE
  8
PV
 62
     7
 10
1.790000E+002
 20
2.383000E+002
 30
0.000000E+000
 11
1.790000E+002
 21
2.430000E+002
 31
0.000000E+000
  0
LINE
  8
PV
  6
CENTER
 62
     1
 10
1.880000E+002
 20
2.515360E+002
 30
0.000000E+000
 11
1.880000E+002
 21
2.197980E+002
 31
0.000000E+000
  0
LINE
  8
PV
 62
     7
 10
1.949000E+002
 20
2.383000E+002
 30
0.000000E+000
 11
1.949000E+002
 21
2.345000E+002
 31
0.000000E+000
  0
LINE
  8
PV
 62
     7
 10
1.970000E+002
 20
2.383000E+002
 30
0.000000E+000
 11
1.970000E+002
 21
2.430000E+002
 31
0.000000E+000
  0
LINE
  8
PV
 62
     7
 10
3.135000E+002
 20
1.825000E+002
 30
0.000000E+000
 11
3.135000E+002
 21
1.700000E+002
 31
0.000000E+000
  0
LINE
  8
PV
 62
     7
 10
2.930000E+002
 20
3.420000E+002
 30
0.000000E+000
 11
2.930000E+002
 21
4.040000E+002
 31
0.000000E+000
  0
LINE
  8
PV
 62
     7
 10
2.914000E+002
 20
3.430000E+002
 30
0.000000E+000
 11
2.914000E+002
 21
4.024000E+002
 31
0.000000E+000
  0
LINE
  8
PV
 62
     7
 10
3.130000E+002
 20
3.940000E+002
 30
0.000000E+000
 11
3.130000E+002
 21
3.420000E+002
 31
0.000000E+000
  0
LINE
  8
PV
 62
     7
 10
2.844000E+002
 20
3.900000E+002
 30
0.000000E+000
 11
2.844000E+002
 21
3.840000E+002
 31
0.000000E+000
  0
LINE
  8
PV
 62
     7
 10
2.861000E+002
 20
3.927730E+002
 30
0.000000E+000
 11
2.861000E+002
 21
3.812260E+002
 31
0.000000E+000
  0
LINE
  8
PV
 62
     7
 10
3.130000E+002
 20
3.420000E+002
 30
0.000000E+000
 11
2.930000E+002
 21
3.420000E+002
 31
0.000000E+000
  0
LINE
  8
PV
 62
     7
 10
2.844000E+002
 20
3.520000E+002
 30
0.000000E+000
 11
2.844000E+002
 21
3.460000E+002
 31
0.000000E+000
  0
LINE
  8
PV
 62
     7
 10
2.861000E+002
 20
3.440000E+002
 30
0.000000E+000
 11
2.861000E+002
 21
3.540000E+002
 31
0.000000E+000
  0
LINE
  8
PV
 62
     7
 10
2.861000E+002
 20
3.440000E+002
 30
0.000000E+000
 11
2.914000E+002
 21
3.440000E+002
 31
0.000000E+000
  0
LINE
  8
PV
 62
     7
 10
2.861000E+002
 20
3.460000E+002
 30
0.000000E+000
 11
2.844000E+002
 21
3.460000E+002
 31
0.000000E+000
  0
LINE
  8
PV
 62
     7
 10
2.914000E+002
 20
3.430000E+002
 30
0.000000E+000
 11
2.930000E+002
 21
3.430000E+002
 31
0.000000E+000
  0
LINE
  8
PV
 62
     7
 10
2.861000E+002
 20
3.540000E+002
 30
0.000000E+000
 11
2.914000E+002
 21
3.540000E+002
 31
0.000000E+000
  0
LINE
  8
PV
 62
     7
 10
2.861000E+002
 20
3.520000E+002
 30
0.000000E+000
 11
2.844000E+002
 21
3.520000E+002
 31
0.000000E+000
  0
LINE
  8
PV
 62
     7
 10
2.861000E+002
 20
3.812260E+002
 30
0.000000E+000
 11
2.914000E+002
 21
3.812260E+002
 31
0.000000E+000
  0
LINE
  8
PV
 62
     7
 10
2.861000E+002
 20
3.840000E+002
 30
0.000000E+000
 11
2.844000E+002
 21
3.840000E+002
 31
0.000000E+000
  0
LINE
  8
PV
 62
     7
 10
3.130000E+002
 20
3.940000E+002
 30
0.000000E+000
 11
2.930000E+002
 21
3.940000E+002
 31
0.000000E+000
  0
LINE
  8
PV
 62
     7
 10
2.861000E+002
 20
3.900000E+002
 30
0.000000E+000
 11
2.844000E+002
 21
3.900000E+002
 31
0.000000E+000
  0
LINE
  8
PV
 62
     7
 10
2.861000E+002
 20
3.927730E+002
 30
0.000000E+000
 11
2.914000E+002
 21
3.927730E+002
 31
0.000000E+000
  0
LINE
  8
PV
 62
     7
 10
2.914000E+002
 20
4.024000E+002
 30
0.000000E+000
 11
2.750000E+002
 21
4.024000E+002
 31
0.000000E+000
  0
LINE
  8
PV
 62
     7
 10
2.750000E+002
 20
4.040000E+002
 30
0.000000E+000
 11
2.930000E+002
 21
4.040000E+002
 31
0.000000E+000
  0
LINE
  8
PV
 62
     7
 10
2.750000E+002
 20
4.040000E+002
 30
0.000000E+000
 11
2.750000E+002
 21
4.024000E+002
 31
0.000000E+000
  0
LINE
  8
PV
  6
CENTER
 62
     1
 10
3.290000E+002
 20
2.515360E+002
 30
0.000000E+000
 11
3.290000E+002
 21
8.934110E+001
 31
0.000000E+000
  0
LINE
  8
PV
  6
CENTER
 62
     1
 10
3.610000E+002
 20
2.515360E+002
 30
0.000000E+000
 11
3.610000E+002
 21
8.934110E+001
 31
0.000000E+000
  0
LINE
  8
PV
 62
     7
 10
3.450000E+002
 20
1.000000E+002
 30
0.000000E+000
 11
3.450000E+002
 21
1.700000E+002
 31
0.000000E+000
  0
LINE
  8
PV
 62
     7
 10
3.770000E+002
 20
1.000000E+002
 30
0.000000E+000
 11
3.770000E+002
 21
1.700000E+002
 31
0.000000E+000
  0
TEXT
  8
PV
 62
     7
 10
3.934590E+002
 20
9.062450E+001
 30
0.000000E+000
 40
4.500000E+000
  1
OUT PORT
 41
8.000000E-001
  7
FONT1
  0
LINE
  8
PV
 62
     7
 10
3.681910E+002
 20
8.782070E+001
 30
0.000000E+000
 11
4.213620E+002
 21
8.782070E+001
 31
0.000000E+000
  0
LINE
  8
PV
 62
     7
 10
3.638720E+002
 20
1.209980E+002
 30
0.000000E+000
 11
3.681910E+002
 21
8.782070E+001
 31
0.000000E+000
  0
LINE
  8
PV
 62
     7
 10
3.318720E+002
 20
1.209980E+002
 30
0.000000E+000
 11
3.361910E+002
 21
8.782070E+001
 31
0.000000E+000
  0
LINE
  8
PV
 62
     7
 10
3.361910E+002
 20
8.782070E+001
 30
0.000000E+000
 11
3.681910E+002
 21
8.782070E+001
 31
0.000000E+000
  0
LINE
  8
PV
 62
     7
 10
3.742000E+002
 20
9.400000E+001
 30
0.000000E+000
 11
3.478000E+002
 21
9.400000E+001
 31
0.000000E+000
  0
LINE
  8
PV
 62
     7
 10
3.450000E+002
 20
1.000000E+002
 30
0.000000E+000
 11
3.770000E+002
 21
1.000000E+002
 31
0.000000E+000
  0
CIRCLE
  8
PV
 62
     7
 10
3.610000E+002
 20
1.290000E+002
 30
0.000000E+000
 40
6.578500E+000
  0
POLYLINE
  8
PV
 62
     7
 66
     1
 10
0.0
 20
0.0
 30
0.0
  0
VERTEX
  8
PV
 62
     7
 10
3.315400E+002
 20
1.209650E+002
 30
0.000000E+000
  0
VERTEX
  8
PV
 62
     7
 10
3.322030E+002
 20
1.210320E+002
 30
0.000000E+000
  0
VERTEX
  8
PV
 62
     7
 10
3.316720E+002
 20
1.229880E+002
 30
0.000000E+000
  0
VERTEX
  8
PV
 62
     7
 10
3.315400E+002
 20
1.209650E+002
 30
0.000000E+000
  0
SEQEND
  8
PV
 62
     7
  0
LINE
  8
PV
 62
     7
 10
3.422000E+002
 20
9.400000E+001
 30
0.000000E+000
 11
3.158000E+002
 21
9.400000E+001
 31
0.000000E+000
  0
LINE
  8
PV
 62
     7
 10
3.158000E+002
 20
9.400000E+001
 30
0.000000E+000
 11
3.158000E+002
 21
1.000000E+002
 31
0.000000E+000
  0
LINE
  8
PV
 62
     7
 10
3.422000E+002
 20
9.400000E+001
 30
0.000000E+000
 11
3.422000E+002
 21
1.000000E+002
 31
0.000000E+000
  0
LINE
  8
PV
 62
     7
 10
3.478000E+002
 20
9.400000E+001
 30
0.000000E+000
 11
3.478000E+002
 21
1.000000E+002
 31
0.000000E+000
  0
CIRCLE
  8
PV
 62
     7
 10
3.290000E+002
 20
1.290000E+002
 30
0.000000E+000
 40
6.578500E+000
  0
LINE
  8
PV
 62
     7
 10
3.950000E+002
 20
1.470000E+002
 30
0.000000E+000
 11
3.950000E+002
 21
1.030000E+002
 31
0.000000E+000
  0
LINE
  8
PV
 62
     7
 10
3.786000E+002
 20
1.500000E+002
 30
0.000000E+000
 11
3.786000E+002
 21
1.000000E+002
 31
0.000000E+000
  0
LINE
  8
PV
 62
     7
 10
3.770000E+002
 20
1.500000E+002
 30
0.000000E+000
 11
3.770000E+002
 21
1.000000E+002
 31
0.000000E+000
  0
POLYLINE
  8
PV
 62
     7
 66
     1
 10
0.0
 20
0.0
 30
0.0
  0
VERTEX
  8
PV
 62
     7
 10
3.635400E+002
 20
1.209650E+002
 30
0.000000E+000
  0
VERTEX
  8
PV
 62
     7
 10
3.642030E+002
 20
1.210320E+002
 30
0.000000E+000
  0
VERTEX
  8
PV
 62
     7
 10
3.636720E+002
 20
1.229880E+002
 30
0.000000E+000
  0
VERTEX
  8
PV
 62
     7
 10
3.635400E+002
 20
1.209650E+002
 30
0.000000E+000
  0
SEQEND
  8
PV
 62
     7
  0
LINE
  8
PV
 62
     7
 10
3.770000E+002
 20
1.000000E+002
 30
0.000000E+000
 11
3.920000E+002
 21
1.000000E+002
 31
0.000000E+000
  0
LINE
  8
PV
 62
     7
 10
3.839000E+002
 20
1.020000E+002
 30
0.000000E+000
 11
3.786000E+002
 21
1.020000E+002
 31
0.000000E+000
  0
LINE
  8
PV
 62
     7
 10
3.839000E+002
 20
1.120000E+002
 30
0.000000E+000
 11
3.786000E+002
 21
1.120000E+002
 31
0.000000E+000
  0
LINE
  8
PV
 62
     7
 10
3.742000E+002
 20
9.400000E+001
 30
0.000000E+000
 11
3.742000E+002
 21
1.000000E+002
 31
0.000000E+000
  0
ARC
  8
PV
 62
     7
 10
3.880000E+002
 20
1.070000E+002
 30
0.000000E+000
 40
3.000000E+000
 50
2.168700E+002
 51
1.431300E+002
  0
LINE
  8
PV
 62
     7
 10
3.856000E+002
 20
1.100000E+002
 30
0.000000E+000
 11
3.856000E+002
 21
1.040000E+002
 31
0.000000E+000
  0
LINE
  8
PV
 62
     7
 10
3.839000E+002
 20
1.020000E+002
 30
0.000000E+000
 11
3.839000E+002
 21
1.120000E+002
 31
0.000000E+000
  0
LINE
  8
PV
 62
     7
 10
3.839000E+002
 20
1.040000E+002
 30
0.000000E+000
 11
3.856000E+002
 21
1.040000E+002
 31
0.000000E+000
  0
LINE
  8
PV
 62
     7
 10
3.950000E+002
 20
1.030000E+002
 30
0.000000E+000
 11
3.920000E+002
 21
1.000000E+002
 31
0.000000E+000
  0
LINE
  8
PV
 62
     7
 10
3.839000E+002
 20
1.100000E+002
 30
0.000000E+000
 11
3.856000E+002
 21
1.100000E+002
 31
0.000000E+000
  0
LINE
  8
PV
 62
     7
 10
3.839000E+002
 20
1.457740E+002
 30
0.000000E+000
 11
3.786000E+002
 21
1.457740E+002
 31
0.000000E+000
  0
LINE
  8
PV
 62
     7
 10
3.839000E+002
 20
1.342260E+002
 30
0.000000E+000
 11
3.786000E+002
 21
1.342260E+002
 31
0.000000E+000
  0
LINE
  8
PV
 62
     7
 10
3.770000E+002
 20
1.500000E+002
 30
0.000000E+000
 11
3.920000E+002
 21
1.500000E+002
 31
0.000000E+000
  0
LINE
  8
PV
 62
     7
 10
3.839000E+002
 20
1.457740E+002
 30
0.000000E+000
 11
3.839000E+002
 21
1.342260E+002
 31
0.000000E+000
  0
ARC
  8
PV
 62
     7
 10
3.880000E+002
 20
1.430000E+002
 30
0.000000E+000
 40
3.000000E+000
 50
2.168700E+002
 51
1.800000E+002
  0
LINE
  8
PV
 62
     7
 10
3.839000E+002
 20
1.370000E+002
 30
0.000000E+000
 11
3.856000E+002
 21
1.370000E+002
 31
0.000000E+000
  0
LINE
  8
PV
 62
     7
 10
3.839000E+002
 20
1.430000E+002
 30
0.000000E+000
 11
3.856000E+002
 21
1.430000E+002
 31
0.000000E+000
  0
LINE
  8
PV
 62
     7
 10
3.856000E+002
 20
1.430000E+002
 30
0.000000E+000
 11
3.856000E+002
 21
1.370000E+002
 31
0.000000E+000
  0
LINE
  8
PV
 62
     7
 10
3.920000E+002
 20
1.500000E+002
 30
0.000000E+000
 11
3.950000E+002
 21
1.470000E+002
 31
0.000000E+000
  0
LINE
  8
PV
 62
     7
 10
3.404000E+002
 20
2.240000E+002
 30
0.000000E+000
 11
3.404000E+002
 21
1.825000E+002
 31
0.000000E+000
  0
LINE
  8
PV
 62
     7
 10
3.176000E+002
 20
2.240000E+002
 30
0.000000E+000
 11
3.176000E+002
 21
1.825000E+002
 31
0.000000E+000
  0
LINE
  8
PV
 62
     7
 10
3.496000E+002
 20
2.240000E+002
 30
0.000000E+000
 11
3.496000E+002
 21
1.825000E+002
 31
0.000000E+000
  0
LINE
  8
PV
 62
     7
 10
3.724000E+002
 20
2.240000E+002
 30
0.000000E+000
 11
3.724000E+002
 21
1.825000E+002
 31
0.000000E+000
  0
LINE
  8
PV
 62
     7
 10
3.450000E+002
 20
1.700000E+002
 30
0.000000E+000
 11
3.770000E+002
 21
1.700000E+002
 31
0.000000E+000
  0
LINE
  8
PV
 62
     7
 10
3.455000E+002
 20
1.825000E+002
 30
0.000000E+000
 11
3.765000E+002
 21
1.825000E+002
 31
0.000000E+000
  0
LINE
  8
PV
 62
     7
 10
3.724000E+002
 20
1.935000E+002
 30
0.000000E+000
 11
3.496000E+002
 21
1.935000E+002
 31
0.000000E+000
  0
LINE
  8
PV
 62
     7
 10
3.445000E+002
 20
1.825000E+002
 30
0.000000E+000
 11
3.445000E+002
 21
1.700000E+002
 31
0.000000E+000
  0
LINE
  8
PV
 62
     7
 10
3.455000E+002
 20
1.825000E+002
 30
0.000000E+000
 11
3.455000E+002
 21
1.700000E+002
 31
0.000000E+000
  0
LINE
  8
PV
  6
CENTER
 62
     1
 10
3.325000E+002
 20
1.709510E+002
 30
0.000000E+000
 11
3.325000E+002
 21
1.815490E+002
 31
0.000000E+000
  0
LINE
  8
PV
  6
CENTER
 62
     1
 10
3.377990E+002
 20
1.762500E+002
 30
0.000000E+000
 11
3.272010E+002
 21
1.762500E+002
 31
0.000000E+000
  0
CIRCLE
  8
PV
 62
     7
 10
3.325000E+002
 20
1.762500E+002
 30
0.000000E+000
 40
2.500000E+000
  0
LINE
  8
PV
 62
     7
 10
3.404000E+002
 20
1.935000E+002
 30
0.000000E+000
 11
3.176000E+002
 21
1.935000E+002
 31
0.000000E+000
  0
CIRCLE
  8
PV
 62
     7
 10
3.290000E+002
 20
1.877000E+002
 30
0.000000E+000
 40
2.600000E+000
  0
LINE
  8
PV
 62
     7
 10
3.765000E+002
 20
1.825000E+002
 30
0.000000E+000
 11
3.765000E+002
 21
1.700000E+002
 31
0.000000E+000
  0
LINE
  8
PV
 62
     7
 10
3.765000E+002
 20
1.825000E+002
 30
0.000000E+000
 11
3.765000E+002
 21
1.700000E+002
 31
0.000000E+000
  0
LINE
  8
PV
  6
CENTER
 62
     1
 10
3.645000E+002
 20
1.709510E+002
 30
0.000000E+000
 11
3.645000E+002
 21
1.815490E+002
 31
0.000000E+000
  0
LINE
  8
PV
  6
CENTER
 62
     1
 10
3.697990E+002
 20
1.762500E+002
 30
0.000000E+000
 11
3.592010E+002
 21
1.762500E+002
 31
0.000000E+000
  0
CIRCLE
  8
PV
 62
     7
 10
3.645000E+002
 20
1.762500E+002
 30
0.000000E+000
 40
2.500000E+000
  0
CIRCLE
  8
PV
 62
     7
 10
3.610000E+002
 20
1.877000E+002
 30
0.000000E+000
 40
2.600000E+000
  0
LINE
  8
PV
 62
     7
 10
3.724000E+002
 20
2.225000E+002
 30
0.000000E+000
 11
3.496000E+002
 21
2.225000E+002
 31
0.000000E+000
  0
LINE
  8
PV
 62
     7
 10
3.520000E+002
 20
2.430000E+002
 30
0.000000E+000
 11
3.700000E+002
 21
2.430000E+002
 31
0.000000E+000
  0
LINE
  8
PV
 62
     7
 10
3.520000E+002
 20
2.345000E+002
 30
0.000000E+000
 11
3.700000E+002
 21
2.345000E+002
 31
0.000000E+000
  0
LINE
  8
PV
 62
     7
 10
3.520000E+002
 20
2.383000E+002
 30
0.000000E+000
 11
3.700000E+002
 21
2.383000E+002
 31
0.000000E+000
  0
LINE
  8
PV
 62
     7
 10
3.221000E+002
 20
2.383000E+002
 30
0.000000E+000
 11
3.221000E+002
 21
2.345000E+002
 31
0.000000E+000
  0
LINE
  8
PV
 62
     7
 10
3.359000E+002
 20
2.383000E+002
 30
0.000000E+000
 11
3.359000E+002
 21
2.345000E+002
 31
0.000000E+000
  0
LINE
  8
PV
 62
     7
 10
3.541000E+002
 20
2.383000E+002
 30
0.000000E+000
 11
3.541000E+002
 21
2.345000E+002
 31
0.000000E+000
  0
LINE
  8
PV
 62
     7
 10
3.404000E+002
 20
2.225000E+002
 30
0.000000E+000
 11
3.176000E+002
 21
2.225000E+002
 31
0.000000E+000
  0
LINE
  8
PV
 62
     7
 10
3.200000E+002
 20
2.345000E+002
 30
0.000000E+000
 11
3.380000E+002
 21
2.345000E+002
 31
0.000000E+000
  0
LINE
  8
PV
 62
     7
 10
3.200000E+002
 20
2.225000E+002
 30
0.000000E+000
 11
3.200000E+002
 21
2.345000E+002
 31
0.000000E+000
  0
LINE
  8
PV
 62
     7
 10
3.200000E+002
 20
2.240000E+002
 30
0.000000E+000
 11
3.176000E+002
 21
2.240000E+002
 31
0.000000E+000
  0
LINE
  8
PV
 62
     7
 10
3.200000E+002
 20
2.260000E+002
 30
0.000000E+000
 11
3.187550E+002
 21
2.260000E+002
 31
0.000000E+000
  0
LINE
  8
PV
 62
     7
 10
3.176000E+002
 20
2.240000E+002
 30
0.000000E+000
 11
3.187550E+002
 21
2.260000E+002
 31
0.000000E+000
  0
LINE
  8
PV
 62
     7
 10
3.380000E+002
 20
2.225000E+002
 30
0.000000E+000
 11
3.380000E+002
 21
2.345000E+002
 31
0.000000E+000
  0
LINE
  8
PV
 62
     7
 10
3.520000E+002
 20
2.225000E+002
 30
0.000000E+000
 11
3.520000E+002
 21
2.345000E+002
 31
0.000000E+000
  0
LINE
  8
PV
 62
     7
 10
3.404000E+002
 20
2.240000E+002
 30
0.000000E+000
 11
3.380000E+002
 21
2.240000E+002
 31
0.000000E+000
  0
LINE
  8
PV
 62
     7
 10
3.392450E+002
 20
2.260000E+002
 30
0.000000E+000
 11
3.380000E+002
 21
2.260000E+002
 31
0.000000E+000
  0
LINE
  8
PV
 62
     7
 10
3.404000E+002
 20
2.240000E+002
 30
0.000000E+000
 11
3.392450E+002
 21
2.260000E+002
 31
0.000000E+000
  0
LINE
  8
PV
 62
     7
 10
3.520000E+002
 20
2.260000E+002
 30
0.000000E+000
 11
3.507550E+002
 21
2.260000E+002
 31
0.000000E+000
  0
LINE
  8
PV
 62
     7
 10
3.496000E+002
 20
2.240000E+002
 30
0.000000E+000
 11
3.507550E+002
 21
2.260000E+002
 31
0.000000E+000
  0
LINE
  8
PV
 62
     7
 10
3.520000E+002
 20
2.240000E+002
 30
0.000000E+000
 11
3.496000E+002
 21
2.240000E+002
 31
0.000000E+000
  0
LINE
  8
PV
 62
     7
 10
3.200000E+002
 20
2.383000E+002
 30
0.000000E+000
 11
3.380000E+002
 21
2.383000E+002
 31
0.000000E+000
  0
LINE
  8
PV
 62
     7
 10
3.200000E+002
 20
2.430000E+002
 30
0.000000E+000
 11
3.380000E+002
 21
2.430000E+002
 31
0.000000E+000
  0
LINE
  8
PV
 62
     7
 10
3.200000E+002
 20
2.383000E+002
 30
0.000000E+000
 11
3.200000E+002
 21
2.430000E+002
 31
0.000000E+000
  0
LINE
  8
PV
 62
     7
 10
3.380000E+002
 20
2.383000E+002
 30
0.000000E+000
 11
3.380000E+002
 21
2.430000E+002
 31
0.000000E+000
  0
LINE
  8
PV
 62
     7
 10
3.520000E+002
 20
2.383000E+002
 30
0.000000E+000
 11
3.520000E+002
 21
2.430000E+002
 31
0.000000E+000
  0
LINE
  8
PV
 62
     7
 10
3.679000E+002
 20
2.383000E+002
 30
0.000000E+000
 11
3.679000E+002
 21
2.345000E+002
 31
0.000000E+000
  0
LINE
  8
PV
 62
     7
 10
3.700000E+002
 20
2.225000E+002
 30
0.000000E+000
 11
3.700000E+002
 21
2.345000E+002
 31
0.000000E+000
  0
LINE
  8
PV
 62
     7
 10
3.724000E+002
 20
2.240000E+002
 30
0.000000E+000
 11
3.700000E+002
 21
2.240000E+002
 31
0.000000E+000
  0
LINE
  8
PV
 62
     7
 10
3.712450E+002
 20
2.260000E+002
 30
0.000000E+000
 11
3.700000E+002
 21
2.260000E+002
 31
0.000000E+000
  0
LINE
  8
PV
 62
     7
 10
3.724000E+002
 20
2.240000E+002
 30
0.000000E+000
 11
3.712450E+002
 21
2.260000E+002
 31
0.000000E+000
  0
LINE
  8
PV
 62
     7
 10
3.700000E+002
 20
2.383000E+002
 30
0.000000E+000
 11
3.700000E+002
 21
2.430000E+002
 31
0.000000E+000
  0
LINE
  8
PV
 62
     7
 10
5.250000E+002
 20
1.825000E+002
 30
0.000000E+000
 11
5.250000E+002
 21
1.000000E+002
 31
0.000000E+000
  0
LINE
  8
PV
 62
     7
 10
5.770000E+002
 20
1.825000E+002
 30
0.000000E+000
 11
5.770000E+002
 21
1.500000E+002
 31
0.000000E+000
  0
LINE
  8
PV
 62
     7
 10
5.728870E+002
 20
1.120000E+002
 30
0.000000E+000
 11
5.757740E+002
 21
1.070000E+002
 31
0.000000E+000
  0
LINE
  8
PV
 62
     7
 10
5.757740E+002
 20
1.070000E+002
 30
0.000000E+000
 11
5.728870E+002
 21
1.020000E+002
 31
0.000000E+000
  0
LINE
  8
PV
 62
     7
 10
5.728870E+002
 20
1.020000E+002
 30
0.000000E+000
 11
5.671130E+002
 21
1.020000E+002
 31
0.000000E+000
  0
LINE
  8
PV
 62
     7
 10
5.671130E+002
 20
1.020000E+002
 30
0.000000E+000
 11
5.642270E+002
 21
1.070000E+002
 31
0.000000E+000
  0
LINE
  8
PV
 62
     7
 10
5.642270E+002
 20
1.070000E+002
 30
0.000000E+000
 11
5.671130E+002
 21
1.120000E+002
 31
0.000000E+000
  0
LINE
  8
PV
 62
     7
 10
5.671130E+002
 20
1.120000E+002
 30
0.000000E+000
 11
5.728870E+002
 21
1.120000E+002
 31
0.000000E+000
  0
LINE
  8
PV
 62
     7
 10
5.250000E+002
 20
1.000000E+002
 30
0.000000E+000
 11
5.870000E+002
 21
1.000000E+002
 31
0.000000E+000
  0
LINE
  8
PV
 62
     7
 10
5.290000E+002
 20
1.500000E+002
 30
0.000000E+000
 11
5.870000E+002
 21
1.500000E+002
 31
0.000000E+000
  0
LINE
  8
PV
  6
CENTER
 62
     1
 10
5.202530E+002
 20
1.290000E+002
 30
0.000000E+000
 11
5.911720E+002
 21
1.290000E+002
 31
0.000000E+000
  0
CIRCLE
  8
PV
 62
     7
 10
5.320000E+002
 20
1.400000E+002
 30
0.000000E+000
 40
3.000000E+000
  0
LINE
  8
PV
 62
     7
 10
5.370000E+002
 20
1.371130E+002
 30
0.000000E+000
 11
5.320000E+002
 21
1.342260E+002
 31
0.000000E+000
  0
LINE
  8
PV
 62
     7
 10
5.320000E+002
 20
1.342260E+002
 30
0.000000E+000
 11
5.270000E+002
 21
1.371130E+002
 31
0.000000E+000
  0
LINE
  8
PV
 62
     7
 10
5.270000E+002
 20
1.371130E+002
 30
0.000000E+000
 11
5.270000E+002
 21
1.428870E+002
 31
0.000000E+000
  0
LINE
  8
PV
 62
     7
 10
5.270000E+002
 20
1.428870E+002
 30
0.000000E+000
 11
5.320000E+002
 21
1.457740E+002
 31
0.000000E+000
  0
LINE
  8
PV
 62
     7
 10
5.320000E+002
 20
1.457740E+002
 30
0.000000E+000
 11
5.370000E+002
 21
1.428870E+002
 31
0.000000E+000
  0
LINE
  8
PV
 62
     7
 10
5.370000E+002
 20
1.428870E+002
 30
0.000000E+000
 11
5.370000E+002
 21
1.371130E+002
 31
0.000000E+000
  0
LINE
  8
PV
 62
     7
 10
5.260000E+002
 20
1.470000E+002
 30
0.000000E+000
 11
5.260000E+002
 21
1.030000E+002
 31
0.000000E+000
  0
LINE
  8
PV
 62
     7
 10
5.260000E+002
 20
1.030000E+002
 30
0.000000E+000
 11
5.290000E+002
 21
1.000000E+002
 31
0.000000E+000
  0
LINE
  8
PV
 62
     7
 10
5.290000E+002
 20
1.500000E+002
 30
0.000000E+000
 11
5.260000E+002
 21
1.470000E+002
 31
0.000000E+000
  0
LINE
  8
PV
 62
     7
 10
5.318000E+002
 20
9.400000E+001
 30
0.000000E+000
 11
5.582000E+002
 21
9.400000E+001
 31
0.000000E+000
  0
LINE
  8
PV
 62
     7
 10
5.318000E+002
 20
9.400000E+001
 30
0.000000E+000
 11
5.318000E+002
 21
1.000000E+002
 31
0.000000E+000
  0
CIRCLE
  8
PV
 62
     7
 10
5.700000E+002
 20
1.070000E+002
 30
0.000000E+000
 40
3.000000E+000
  0
LINE
  8
PV
 62
     7
 10
5.582000E+002
 20
9.400000E+001
 30
0.000000E+000
 11
5.582000E+002
 21
1.000000E+002
 31
0.000000E+000
  0
LINE
  8
PV
 62
     7
 10
5.870000E+002
 20
1.500000E+002
 30
0.000000E+000
 11
5.870000E+002
 21
1.000000E+002
 31
0.000000E+000
  0
LINE
  8
PV
 62
     7
 10
5.854000E+002
 20
1.500000E+002
 30
0.000000E+000
 11
5.854000E+002
 21
1.000000E+002
 31
0.000000E+000
  0
LINE
  8
PV
 62
     7
 10
5.250000E+002
 20
1.700000E+002
 30
0.000000E+000
 11
5.770000E+002
 21
1.700000E+002
 31
0.000000E+000
  0
LINE
  8
PV
 62
     7
 10
5.250000E+002
 20
1.825000E+002
 30
0.000000E+000
 11
5.770000E+002
 21
1.825000E+002
 31
0.000000E+000
  0
LINE
  8
PV
  6
CENTER
 62
     1
 10
5.470000E+002
 20
1.798220E+002
 30
0.000000E+000
 11
5.470000E+002
 21
2.312990E+002
 31
0.000000E+000
  0
LINE
  8
PV
 62
     7
 10
5.627000E+002
 20
2.240000E+002
 30
0.000000E+000
 11
5.627000E+002
 21
1.825000E+002
 31
0.000000E+000
  0
LINE
  8
PV
 62
     7
 10
4.900000E+002
 20
1.935000E+002
 30
0.000000E+000
 11
4.900000E+002
 21
2.345000E+002
 31
0.000000E+000
  0
LINE
  8
PV
 62
     7
 10
5.220000E+002
 20
1.935000E+002
 30
0.000000E+000
 11
5.220000E+002
 21
2.225000E+002
 31
0.000000E+000
  0
LINE
  8
PV
 62
     7
 10
5.235000E+002
 20
2.225000E+002
 30
0.000000E+000
 11
5.235000E+002
 21
1.935000E+002
 31
0.000000E+000
  0
LINE
  8
PV
 62
     7
 10
5.627000E+002
 20
1.935000E+002
 30
0.000000E+000
 11
4.900000E+002
 21
1.935000E+002
 31
0.000000E+000
  0
LINE
  8
PV
 62
     7
 10
5.313000E+002
 20
1.935000E+002
 30
0.000000E+000
 11
5.313000E+002
 21
1.825000E+002
 31
0.000000E+000
  0
LINE
  8
PV
 62
     7
 10
5.310000E+002
 20
1.903000E+002
 30
0.000000E+000
 11
5.310000E+002
 21
1.851000E+002
 31
0.000000E+000
  0
LINE
  8
PV
 62
     7
 10
5.310000E+002
 20
1.851000E+002
 30
0.000000E+000
 11
5.313000E+002
 21
1.851000E+002
 31
0.000000E+000
  0
LINE
  8
PV
 62
     7
 10
5.310000E+002
 20
1.903000E+002
 30
0.000000E+000
 11
5.313000E+002
 21
1.903000E+002
 31
0.000000E+000
  0
LINE
  8
PV
 62
     7
 10
5.627000E+002
 20
2.195000E+002
 30
0.000000E+000
 11
5.275000E+002
 21
2.195000E+002
 31
0.000000E+000
  0
LINE
  8
PV
  6
CENTER
 62
     1
 10
4.990000E+002
 20
2.515360E+002
 30
0.000000E+000
 11
4.990000E+002
 21
2.197980E+002
 31
0.000000E+000
  0
LINE
  8
PV
 62
     7
 10
5.059000E+002
 20
2.383000E+002
 30
0.000000E+000
 11
5.059000E+002
 21
2.345000E+002
 31
0.000000E+000
  0
LINE
  8
PV
 62
     7
 10
4.921000E+002
 20
2.383000E+002
 30
0.000000E+000
 11
4.921000E+002
 21
2.345000E+002
 31
0.000000E+000
  0
LINE
  8
PV
 62
     7
 10
5.275000E+002
 20
2.225000E+002
 30
0.000000E+000
 11
4.900000E+002
 21
2.225000E+002
 31
0.000000E+000
  0
LINE
  8
PV
 62
     7
 10
5.080000E+002
 20
2.225000E+002
 30
0.000000E+000
 11
5.080000E+002
 21
2.345000E+002
 31
0.000000E+000
  0
LINE
  8
PV
 62
     7
 10
4.900000E+002
 20
2.345000E+002
 30
0.000000E+000
 11
5.080000E+002
 21
2.345000E+002
 31
0.000000E+000
  0
LINE
  8
PV
 62
     7
 10
5.275000E+002
 20
2.225000E+002
 30
0.000000E+000
 11
5.275000E+002
 21
2.195000E+002
 31
0.000000E+000
  0
LINE
  8
PV
 62
     7
 10
4.900000E+002
 20
2.430000E+002
 30
0.000000E+000
 11
5.080000E+002
 21
2.430000E+002
 31
0.000000E+000
  0
LINE
  8
PV
 62
     7
 10
4.900000E+002
 20
2.383000E+002
 30
0.000000E+000
 11
5.080000E+002
 21
2.383000E+002
 31
0.000000E+000
  0
LINE
  8
PV
 62
     7
 10
4.900000E+002
 20
2.383000E+002
 30
0.000000E+000
 11
4.900000E+002
 21
2.430000E+002
 31
0.000000E+000
  0
LINE
  8
PV
 62
     7
 10
5.080000E+002
 20
2.383000E+002
 30
0.000000E+000
 11
5.080000E+002
 21
2.430000E+002
 31
0.000000E+000
  0
LINE
  8
PV
 62
     7
 10
5.627000E+002
 20
2.240000E+002
 30
0.000000E+000
 11
5.313000E+002
 21
2.240000E+002
 31
0.000000E+000
  0
LINE
  8
PV
 62
     7
 10
5.615450E+002
 20
2.260000E+002
 30
0.000000E+000
 11
5.324550E+002
 21
2.260000E+002
 31
0.000000E+000
  0
LINE
  8
PV
 62
     7
 10
5.313000E+002
 20
2.240000E+002
 30
0.000000E+000
 11
5.313000E+002
 21
2.195000E+002
 31
0.000000E+000
  0
LINE
  8
PV
 62
     7
 10
5.313000E+002
 20
2.240000E+002
 30
0.000000E+000
 11
5.324550E+002
 21
2.260000E+002
 31
0.000000E+000
  0
LINE
  8
PV
 62
     7
 10
5.627000E+002
 20
2.240000E+002
 30
0.000000E+000
 11
5.615450E+002
 21
2.260000E+002
 31
0.000000E+000
  0
LINE
  8
PV
 62
     7
 10
3.450000E+002
 20
3.420000E+002
 30
0.000000E+000
 11
3.450000E+002
 21
3.940000E+002
 31
0.000000E+000
  0
LINE
  8
PV
 62
     7
 10
3.839000E+002
 20
3.927730E+002
 30
0.000000E+000
 11
3.839000E+002
 21
3.812260E+002
 31
0.000000E+000
  0
LINE
  8
PV
 62
     7
 10
3.770000E+002
 20
3.420000E+002
 30
0.000000E+000
 11
3.770000E+002
 21
4.040000E+002
 31
0.000000E+000
  0
LINE
  8
PV
 62
     7
 10
3.786000E+002
 20
3.430000E+002
 30
0.000000E+000
 11
3.786000E+002
 21
4.024000E+002
 31
0.000000E+000
  0
LINE
  8
PV
 62
     7
 10
3.856000E+002
 20
3.900000E+002
 30
0.000000E+000
 11
3.856000E+002
 21
3.840000E+002
 31
0.000000E+000
  0
LINE
  8
PV
  6
CENTER
 62
     1
 10
3.290000E+002
 20
4.009530E+002
 30
0.000000E+000
 11
3.290000E+002
 21
2.908820E+002
 31
0.000000E+000
  0
LINE
  8
PV
  6
CENTER
 62
     1
 10
3.610000E+002
 20
4.009530E+002
 30
0.000000E+000
 11
3.610000E+002
 21
2.908820E+002
 31
0.000000E+000
  0
LINE
  8
PV
 62
     7
 10
3.404000E+002
 20
3.445000E+002
 30
0.000000E+000
 11
3.404000E+002
 21
3.070000E+002
 31
0.000000E+000
  0
LINE
  8
PV
 62
     7
 10
3.176000E+002
 20
3.445000E+002
 30
0.000000E+000
 11
3.176000E+002
 21
3.070000E+002
 31
0.000000E+000
  0
LINE
  8
PV
 62
     7
 10
3.496000E+002
 20
3.445000E+002
 30
0.000000E+000
 11
3.496000E+002
 21
3.070000E+002
 31
0.000000E+000
  0
LINE
  8
PV
 62
     7
 10
3.724000E+002
 20
3.445000E+002
 30
0.000000E+000
 11
3.724000E+002
 21
3.070000E+002
 31
0.000000E+000
  0
CIRCLE
  8
PV
 62
     7
 10
3.610000E+002
 20
3.160000E+002
 30
0.000000E+000
 40
9.000000E+000
  0
LINE
  8
PV
 62
     7
 10
3.724000E+002
 20
3.070000E+002
 30
0.000000E+000
 11
3.496000E+002
 21
3.070000E+002
 31
0.000000E+000
  0
CIRCLE
  8
PV
 62
     7
 10
3.610000E+002
 20
3.160000E+002
 30
0.000000E+000
 40
6.900000E+000
  0
CIRCLE
  8
PV
 62
     7
 10
3.290000E+002
 20
3.160000E+002
 30
0.000000E+000
 40
9.000000E+000
  0
LINE
  8
PV
 62
     7
 10
3.404000E+002
 20
3.070000E+002
 30
0.000000E+000
 11
3.176000E+002
 21
3.070000E+002
 31
0.000000E+000
  0
CIRCLE
  8
PV
 62
     7
 10
3.290000E+002
 20
3.160000E+002
 30
0.000000E+000
 40
6.900000E+000
  0
LINE
  8
PV
 62
     7
 10
3.496000E+002
 20
3.445000E+002
 30
0.000000E+000
 11
3.724000E+002
 21
3.445000E+002
 31
0.000000E+000
  0
LINE
  8
PV
 62
     7
 10
3.496000E+002
 20
3.390000E+002
 30
0.000000E+000
 11
3.724000E+002
 21
3.390000E+002
 31
0.000000E+000
  0
LINE
  8
PV
 62
     7
 10
3.724000E+002
 20
3.405000E+002
 30
0.000000E+000
 11
3.496000E+002
 21
3.405000E+002
 31
0.000000E+000
  0
LINE
  8
PV
 62
     7
 10
3.704000E+002
 20
3.494550E+002
 30
0.000000E+000
 11
3.516000E+002
 21
3.494550E+002
 31
0.000000E+000
  0
LINE
  8
PV
 62
     7
 10
3.724000E+002
 20
3.483000E+002
 30
0.000000E+000
 11
3.496000E+002
 21
3.483000E+002
 31
0.000000E+000
  0
LINE
  8
PV
 62
     7
 10
3.516000E+002
 20
3.785450E+002
 30
0.000000E+000
 11
3.704000E+002
 21
3.785450E+002
 31
0.000000E+000
  0
LINE
  8
PV
 62
     7
 10
3.496000E+002
 20
3.797000E+002
 30
0.000000E+000
 11
3.724000E+002
 21
3.797000E+002
 31
0.000000E+000
  0
LINE
  8
PV
 62
     7
 10
3.176000E+002
 20
3.797000E+002
 30
0.000000E+000
 11
3.176000E+002
 21
3.445000E+002
 31
0.000000E+000
  0
LINE
  8
PV
 62
     7
 10
3.404000E+002
 20
3.797000E+002
 30
0.000000E+000
 11
3.404000E+002
 21
3.445000E+002
 31
0.000000E+000
  0
LINE
  8
PV
 62
     7
 10
3.196000E+002
 20
3.785450E+002
 30
0.000000E+000
 11
3.196000E+002
 21
3.494550E+002
 31
0.000000E+000
  0
LINE
  8
PV
 62
     7
 10
3.384000E+002
 20
3.785450E+002
 30
0.000000E+000
 11
3.384000E+002
 21
3.494550E+002
 31
0.000000E+000
  0
LINE
  8
PV
 62
     7
 10
3.496000E+002
 20
3.797000E+002
 30
0.000000E+000
 11
3.496000E+002
 21
3.445000E+002
 31
0.000000E+000
  0
LINE
  8
PV
 62
     7
 10
3.516000E+002
 20
3.785450E+002
 30
0.000000E+000
 11
3.516000E+002
 21
3.494550E+002
 31
0.000000E+000
  0
LINE
  8
PV
 62
     7
 10
3.176000E+002
 20
3.390000E+002
 30
0.000000E+000
 11
3.404000E+002
 21
3.390000E+002
 31
0.000000E+000
  0
LINE
  8
PV
 62
     7
 10
3.404000E+002
 20
3.405000E+002
 30
0.000000E+000
 11
3.176000E+002
 21
3.405000E+002
 31
0.000000E+000
  0
LINE
  8
PV
 62
     7
 10
3.176000E+002
 20
3.445000E+002
 30
0.000000E+000
 11
3.404000E+002
 21
3.445000E+002
 31
0.000000E+000
  0
LINE
  8
PV
 62
     7
 10
3.404000E+002
 20
3.483000E+002
 30
0.000000E+000
 11
3.176000E+002
 21
3.483000E+002
 31
0.000000E+000
  0
LINE
  8
PV
 62
     7
 10
3.384000E+002
 20
3.494550E+002
 30
0.000000E+000
 11
3.196000E+002
 21
3.494550E+002
 31
0.000000E+000
  0
LINE
  8
PV
 62
     7
 10
3.176000E+002
 20
3.483000E+002
 30
0.000000E+000
 11
3.196000E+002
 21
3.494550E+002
 31
0.000000E+000
  0
LINE
  8
PV
 62
     7
 10
3.450000E+002
 20
3.420000E+002
 30
0.000000E+000
 11
3.496000E+002
 21
3.420000E+002
 31
0.000000E+000
  0
LINE
  8
PV
 62
     7
 10
3.404000E+002
 20
3.420000E+002
 30
0.000000E+000
 11
3.450000E+002
 21
3.420000E+002
 31
0.000000E+000
  0
LINE
  8
PV
 62
     7
 10
3.404000E+002
 20
3.483000E+002
 30
0.000000E+000
 11
3.384000E+002
 21
3.494550E+002
 31
0.000000E+000
  0
LINE
  8
PV
 62
     7
 10
3.496000E+002
 20
3.483000E+002
 30
0.000000E+000
 11
3.516000E+002
 21
3.494550E+002
 31
0.000000E+000
  0
LINE
  8
PV
 62
     7
 10
3.176000E+002
 20
3.797000E+002
 30
0.000000E+000
 11
3.404000E+002
 21
3.797000E+002
 31
0.000000E+000
  0
LINE
  8
PV
 62
     7
 10
3.196000E+002
 20
3.785450E+002
 30
0.000000E+000
 11
3.384000E+002
 21
3.785450E+002
 31
0.000000E+000
  0
LINE
  8
PV
 62
     7
 10
3.196000E+002
 20
3.785450E+002
 30
0.000000E+000
 11
3.176000E+002
 21
3.797000E+002
 31
0.000000E+000
  0
LINE
  8
PV
 62
     7
 10
3.384000E+002
 20
3.785450E+002
 30
0.000000E+000
 11
3.404000E+002
 21
3.797000E+002
 31
0.000000E+000
  0
LINE
  8
PV
 62
     7
 10
3.516000E+002
 20
3.785450E+002
 30
0.000000E+000
 11
3.496000E+002
 21
3.797000E+002
 31
0.000000E+000
  0
LINE
  8
PV
 62
     7
 10
3.704000E+002
 20
3.785450E+002
 30
0.000000E+000
 11
3.704000E+002
 21
3.494550E+002
 31
0.000000E+000
  0
LINE
  8
PV
 62
     7
 10
3.724000E+002
 20
3.797000E+002
 30
0.000000E+000
 11
3.724000E+002
 21
3.445000E+002
 31
0.000000E+000
  0
LINE
  8
PV
 62
     7
 10
3.839000E+002
 20
3.440000E+002
 30
0.000000E+000
 11
3.786000E+002
 21
3.440000E+002
 31
0.000000E+000
  0
LINE
  8
PV
 62
     7
 10
3.839000E+002
 20
3.540000E+002
 30
0.000000E+000
 11
3.786000E+002
 21
3.540000E+002
 31
0.000000E+000
  0
LINE
  8
PV
 62
     7
 10
3.724000E+002
 20
3.420000E+002
 30
0.000000E+000
 11
3.770000E+002
 21
3.420000E+002
 31
0.000000E+000
  0
LINE
  8
PV
 62
     7
 10
3.786000E+002
 20
3.430000E+002
 30
0.000000E+000
 11
3.770000E+002
 21
3.430000E+002
 31
0.000000E+000
  0
LINE
  8
PV
 62
     7
 10
3.724000E+002
 20
3.483000E+002
 30
0.000000E+000
 11
3.704000E+002
 21
3.494550E+002
 31
0.000000E+000
  0
LINE
  8
PV
 62
     7
 10
3.839000E+002
 20
3.440000E+002
 30
0.000000E+000
 11
3.839000E+002
 21
3.540000E+002
 31
0.000000E+000
  0
LINE
  8
PV
 62
     7
 10
3.856000E+002
 20
3.520000E+002
 30
0.000000E+000
 11
3.856000E+002
 21
3.460000E+002
 31
0.000000E+000
  0
LINE
  8
PV
 62
     7
 10
3.839000E+002
 20
3.460000E+002
 30
0.000000E+000
 11
3.856000E+002
 21
3.460000E+002
 31
0.000000E+000
  0
LINE
  8
PV
 62
     7
 10
3.839000E+002
 20
3.520000E+002
 30
0.000000E+000
 11
3.856000E+002
 21
3.520000E+002
 31
0.000000E+000
  0
LINE
  8
PV
 62
     7
 10
3.839000E+002
 20
3.812260E+002
 30
0.000000E+000
 11
3.786000E+002
 21
3.812260E+002
 31
0.000000E+000
  0
LINE
  8
PV
 62
     7
 10
3.704000E+002
 20
3.785450E+002
 30
0.000000E+000
 11
3.724000E+002
 21
3.797000E+002
 31
0.000000E+000
  0
LINE
  8
PV
 62
     7
 10
3.839000E+002
 20
3.840000E+002
 30
0.000000E+000
 11
3.856000E+002
 21
3.840000E+002
 31
0.000000E+000
  0
LINE
  8
PV
 62
     7
 10
3.450000E+002
 20
3.940000E+002
 30
0.000000E+000
 11
3.770000E+002
 21
3.940000E+002
 31
0.000000E+000
  0
LINE
  8
PV
 62
     7
 10
3.786000E+002
 20
4.024000E+002
 30
0.000000E+000
 11
3.950000E+002
 21
4.024000E+002
 31
0.000000E+000
  0
LINE
  8
PV
 62
     7
 10
3.950000E+002
 20
4.040000E+002
 30
0.000000E+000
 11
3.770000E+002
 21
4.040000E+002
 31
0.000000E+000
  0
LINE
  8
PV
 62
     7
 10
3.839000E+002
 20
3.927730E+002
 30
0.000000E+000
 11
3.786000E+002
 21
3.927730E+002
 31
0.000000E+000
  0
LINE
  8
PV
 62
     7
 10
3.839000E+002
 20
3.900000E+002
 30
0.000000E+000
 11
3.856000E+002
 21
3.900000E+002
 31
0.000000E+000
  0
LINE
  8
PV
 62
     7
 10
3.950000E+002
 20
4.040000E+002
 30
0.000000E+000
 11
3.950000E+002
 21
4.024000E+002
 31
0.000000E+000
  0
TEXT
  8
PV
 62
     7
 10
1.625717E+002
 20
4.502740E+002
 30
0.000000E+000
 40
4.500000E+000
  1
2-1
 41
8.888889E-001
  7
FONT1
  0
LINE
  8
PV
 62
     7
 10
1.546720E+002
 20
4.502740E+002
 30
0.000000E+000
 11
1.589140E+002
 21
4.545170E+002
 31
0.000000E+000
  0
LINE
  8
PV
 62
     7
 10
1.589140E+002
 20
4.502740E+002
 30
0.000000E+000
 11
1.546720E+002
 21
4.545170E+002
 31
0.000000E+000
  0
TEXT
  8
PV
 62
     7
 10
1.388970E+002
 20
4.502740E+002
 30
0.000000E+000
 40
4.500000E+000
  1
2A2
  7
FONT1
  0
TEXT
  8
PV
 62
     7
 10
9.389734E+001
 20
4.502740E+002
 30
0.000000E+000
 40
4.500000E+000
  1
MODEL No. :
 41
8.789089E-001
  7
FONT1
  0
LINE
  8
PV
  6
CENTER
 62
     1
 10
9.539760E+001
 20
1.290000E+002
 30
0.000000E+000
 11
1.663160E+002
 21
1.290000E+002
 31
0.000000E+000
  0
LINE
  8
PV
  6
CENTER
 62
     1
 10
1.420000E+002
 20
8.120140E+001
 30
0.000000E+000
 11
1.420000E+002
 21
1.859320E+002
 31
0.000000E+000
  0
LINE
  8
PV
  6
CENTER
 62
     1
 10
5.450000E+002
 20
8.120140E+001
 30
0.000000E+000
 11
5.450000E+002
 21
1.859320E+002
 31
0.000000E+000
  0
ENDSEC
  0
EOF
