  0
SECTION
  2
HEADER
  9
$ACADVER
  1
AC1015
  9
$ACADMAINTVER
 70
     6
  9
$DWGCODEPAGE
  3
ANSI_932
  9
$INSBASE
 10
0.0
 20
0.0
 30
0.0
  9
$EXTMIN
 10
96.92400197588051
 20
97.99630703306684
 30
0.0
  9
$EXTMAX
 10
1144.054078229645
 20
575.9053699155406
 30
5.0
  9
$LIMMIN
 10
0.0
 20
0.0
  9
$LIMMAX
 10
12.0
 20
9.0
  9
$ORTHOMODE
 70
     1
  9
$REGENMODE
 70
     1
  9
$FILLMODE
 70
     1
  9
$QTEXTMODE
 70
     0
  9
$MIRRTEXT
 70
     0
  9
$LTSCALE
 40
2.0
  9
$ATTMODE
 70
     1
  9
$TEXTSIZE
 40
4.6
  9
$TRACEWID
 40
0.05
  9
$TEXTSTYLE
  7
STANDARD
  9
$CLAYER
  8
L-ZISSEN
  9
$CELTYPE
  6
BYLAYER
  9
$CECOLOR
 62
   256
  9
$CELTSCALE
 40
1.0
  9
$DISPSILH
 70
     0
  9
$DIMSCALE
 40
1.0
  9
$DIMASZ
 40
2.0
  9
$DIMEXO
 40
1.0
  9
$DIMDLI
 40
8.0
  9
$DIMRND
 40
0.0
  9
$DIMDLE
 40
0.0
  9
$DIMEXE
 40
1.0
  9
$DIMTP
 40
0.0
  9
$DIMTM
 40
0.0
  9
$DIMTXT
 40
2.5
  9
$DIMCEN
 40
1.5
  9
$DIMTSZ
 40
0.0
  9
$DIMTOL
 70
     0
  9
$DIMLIM
 70
     0
  9
$DIMTIH
 70
     0
  9
$DIMTOH
 70
     0
  9
$DIMSE1
 70
     0
  9
$DIMSE2
 70
     0
  9
$DIMTAD
 70
     1
  9
$DIMZIN
 70
     0
  9
$DIMBLK
  1

  9
$DIMASO
 70
     1
  9
$DIMSHO
 70
     0
  9
$DIMPOST
  1

  9
$DIMAPOST
  1

  9
$DIMALT
 70
     0
  9
$DIMALTD
 70
     2
  9
$DIMALTF
 40
25.4
  9
$DIMLFAC
 40
1.0
  9
$DIMTOFL
 70
     1
  9
$DIMTVP
 40
0.0
  9
$DIMTIX
 70
     1
  9
$DIMSOXD
 70
     0
  9
$DIMSAH
 70
     0
  9
$DIMBLK1
  1

  9
$DIMBLK2
  1

  9
$DIMSTYLE
  2
STANDARD
  9
$DIMCLRD
 70
     0
  9
$DIMCLRE
 70
     0
  9
$DIMCLRT
 70
     0
  9
$DIMTFAC
 40
1.0
  9
$DIMGAP
 40
0.09
  9
$DIMJUST
 70
     0
  9
$DIMSD1
 70
     0
  9
$DIMSD2
 70
     0
  9
$DIMTOLJ
 70
     1
  9
$DIMTZIN
 70
     0
  9
$DIMALTZ
 70
     0
  9
$DIMALTTZ
 70
     0
  9
$DIMUPT
 70
     0
  9
$DIMDEC
 70
     4
  9
$DIMTDEC
 70
     4
  9
$DIMALTU
 70
     2
  9
$DIMALTTD
 70
     2
  9
$DIMTXSTY
  7
STANDARD
  9
$DIMAUNIT
 70
     0
  9
$DIMADEC
 70
     0
  9
$DIMALTRND
 40
0.0
  9
$DIMAZIN
 70
     0
  9
$DIMDSEP
 70
    46
  9
$DIMATFIT
 70
     3
  9
$DIMFRAC
 70
     0
  9
$DIMLDRBLK
  1

  9
$DIMLUNIT
 70
     2
  9
$DIMLWD
 70
    -2
  9
$DIMLWE
 70
    -2
  9
$DIMTMOVE
 70
     0
  9
$LUNITS
 70
     2
  9
$LUPREC
 70
     4
  9
$SKETCHINC
 40
0.1
  9
$FILLETRAD
 40
1.0
  9
$AUNITS
 70
     0
  9
$AUPREC
 70
     0
  9
$MENU
  1
acad
  9
$ELEVATION
 40
0.0
  9
$PELEVATION
 40
0.0
  9
$THICKNESS
 40
0.0
  9
$LIMCHECK
 70
     0
  9
$CHAMFERA
 40
0.0
  9
$CHAMFERB
 40
0.0
  9
$CHAMFERC
 40
0.0
  9
$CHAMFERD
 40
0.0
  9
$SKPOLY
 70
     0
  9
$TDCREATE
 40
2450178.944598264
  9
$TDUCREATE
 40
2450178.569598264
  9
$TDUPDATE
 40
2458038.503248646
  9
$TDUUPDATE
 40
2458038.128248646
  9
$TDINDWG
 40
0.1672722685
  9
$TDUSRTIMER
 40
2458038.122569514
  9
$USRTIMER
 70
     1
  9
$ANGBASE
 50
0.0
  9
$ANGDIR
 70
     0
  9
$PDMODE
 70
     0
  9
$PDSIZE
 40
0.0
  9
$PLINEWID
 40
0.0
  9
$SPLFRAME
 70
     0
  9
$SPLINETYPE
 70
     6
  9
$SPLINESEGS
 70
     8
  9
$HANDSEED
  5
393
  9
$SURFTAB1
 70
     6
  9
$SURFTAB2
 70
     6
  9
$SURFTYPE
 70
     6
  9
$SURFU
 70
     6
  9
$SURFV
 70
     6
  9
$UCSBASE
  2

  9
$UCSNAME
  2

  9
$UCSORG
 10
0.0
 20
0.0
 30
0.0
  9
$UCSXDIR
 10
1.0
 20
0.0
 30
0.0
  9
$UCSYDIR
 10
0.0
 20
1.0
 30
0.0
  9
$UCSORTHOREF
  2

  9
$UCSORTHOVIEW
 70
     0
  9
$UCSORGTOP
 10
0.0
 20
0.0
 30
0.0
  9
$UCSORGBOTTOM
 10
0.0
 20
0.0
 30
0.0
  9
$UCSORGLEFT
 10
0.0
 20
0.0
 30
0.0
  9
$UCSORGRIGHT
 10
0.0
 20
0.0
 30
0.0
  9
$UCSORGFRONT
 10
0.0
 20
0.0
 30
0.0
  9
$UCSORGBACK
 10
0.0
 20
0.0
 30
0.0
  9
$PUCSBASE
  2

  9
$PUCSNAME
  2

  9
$PUCSORG
 10
0.0
 20
0.0
 30
0.0
  9
$PUCSXDIR
 10
1.0
 20
0.0
 30
0.0
  9
$PUCSYDIR
 10
0.0
 20
1.0
 30
0.0
  9
$PUCSORTHOREF
  2

  9
$PUCSORTHOVIEW
 70
     0
  9
$PUCSORGTOP
 10
0.0
 20
0.0
 30
0.0
  9
$PUCSORGBOTTOM
 10
0.0
 20
0.0
 30
0.0
  9
$PUCSORGLEFT
 10
0.0
 20
0.0
 30
0.0
  9
$PUCSORGRIGHT
 10
0.0
 20
0.0
 30
0.0
  9
$PUCSORGFRONT
 10
0.0
 20
0.0
 30
0.0
  9
$PUCSORGBACK
 10
0.0
 20
0.0
 30
0.0
  9
$USERI1
 70
     0
  9
$USERI2
 70
     0
  9
$USERI3
 70
     0
  9
$USERI4
 70
     0
  9
$USERI5
 70
     0
  9
$USERR1
 40
0.0
  9
$USERR2
 40
0.0
  9
$USERR3
 40
0.0
  9
$USERR4
 40
0.0
  9
$USERR5
 40
0.0
  9
$WORLDVIEW
 70
     1
  9
$SHADEDGE
 70
     3
  9
$SHADEDIF
 70
    70
  9
$TILEMODE
 70
     1
  9
$MAXACTVP
 70
    16
  9
$PINSBASE
 10
0.0
 20
0.0
 30
0.0
  9
$PLIMCHECK
 70
     0
  9
$PEXTMIN
 10
1.000000000000000E+20
 20
1.000000000000000E+20
 30
1.000000000000000E+20
  9
$PEXTMAX
 10
-1.000000000000000E+20
 20
-1.000000000000000E+20
 30
-1.000000000000000E+20
  9
$PLIMMIN
 10
0.0
 20
0.0
  9
$PLIMMAX
 10
0.0
 20
0.0
  9
$UNITMODE
 70
     0
  9
$VISRETAIN
 70
     0
  9
$PLINEGEN
 70
     0
  9
$PSLTSCALE
 70
     0
  9
$TREEDEPTH
 70
  3020
  9
$CMLSTYLE
  2
STANDARD
  9
$CMLJUST
 70
     0
  9
$CMLSCALE
 40
1.0
  9
$PROXYGRAPHICS
 70
     1
  9
$MEASUREMENT
 70
     0
  9
$CELWEIGHT
370
    -1
  9
$ENDCAPS
280
     0
  9
$JOINSTYLE
280
     0
  9
$LWDISPLAY
290
     0
  9
$INSUNITS
 70
     0
  9
$HYPERLINKBASE
  1

  9
$STYLESHEET
  1

  9
$XEDIT
290
     1
  9
$CEPSNTYPE
380
     0
  9
$PSTYLEMODE
290
     1
  9
$FINGERPRINTGUID
  2
{8769F354-5703-49DC-863F-6867B1112C09}
  9
$VERSIONGUID
  2
{FAEB1C32-E019-11D5-929B-00C0DF256EC4}
  9
$EXTNAMES
290
     1
  9
$PSVPSCALE
 40
0.0
  9
$OLESTARTUP
290
     0
  0
ENDSEC
  0
SECTION
  2
CLASSES
  0
CLASS
  1
LWPOLYLINE
  2
AcDbPolyline
  3
ObjectDBX Classes
 90
        0
280
     0
281
     1
  0
CLASS
  1
ACAD_ZOMBIE_ENTITY
  2
AcDbDxfZombieEntity
  3
AutoCAD
 90
        0
280
     0
281
     1
  0
CLASS
  1
ACAD_ZOMBIE_OBJECT
  2
AcDbDxfZombieObject
  3
AutoCAD
 90
        0
280
     0
281
     0
  0
CLASS
  1
VISUALSTYLE
  2
AcDbVisualStyle
  3
ObjectDBX Classes
 90
     4095
280
     0
281
     0
  0
CLASS
  1
ACDBDICTIONARYWDFLT
  2
AcDbDictionaryWithDefault
  3
ObjectDBX Classes
 90
        0
280
     0
281
     0
  0
CLASS
  1
SCALE
  2
AcDbScale
  3
ObjectDBX Classes
 90
     1153
280
     0
281
     0
  0
CLASS
  1
MATERIAL
  2
AcDbMaterial
  3
ObjectDBX Classes
 90
     1153
280
     0
281
     0
  0
CLASS
  1
TABLESTYLE
  2
AcDbTableStyle
  3
ObjectDBX Classes
 90
     4095
280
     0
281
     0
  0
CLASS
  1
MLEADERSTYLE
  2
AcDbMLeaderStyle
  3
ACDB_MLEADERSTYLE_CLASS
 90
     4095
280
     0
281
     0
  0
CLASS
  1
SUN
  2
AcDbSun
  3
SCENEOE
 90
     1153
280
     0
281
     0
  0
CLASS
  1
RASTERVARIABLES
  2
AcDbRasterVariables
  3
ISM
 90
        0
280
     0
281
     0
  0
CLASS
  1
DIMASSOC
  2
AcDbDimAssoc
  3
"AcDbDimAssoc|Product Desc:     AcDim ARX App For Dimension|Company:          Autodesk, Inc.|WEB Address:      www.autodesk.com"
 90
        0
280
     0
281
     0
  0
CLASS
  1
DICTIONARYVAR
  2
AcDbDictionaryVar
  3
ObjectDBX Classes
 90
        0
280
     0
281
     0
  0
CLASS
  1
ACDBPLACEHOLDER
  2
AcDbPlaceHolder
  3
ObjectDBX Classes
 90
        0
280
     0
281
     0
  0
CLASS
  1
LAYOUT
  2
AcDbLayout
  3
ObjectDBX Classes
 90
        0
280
     0
281
     0
  0
ENDSEC
  0
SECTION
  2
TABLES
  0
TABLE
  2
VPORT
  5
12
330
0
100
AcDbSymbolTable
 70
     2
  0
VPORT
  5
2E3
330
12
100
AcDbSymbolTableRecord
100
AcDbViewportTableRecord
  2
*ACTIVE
 70
     0
 10
0.0
 20
0.0
 11
1.0
 21
1.0
 12
620.4890401027629
 22
336.9508384743037
 13
0.0
 23
0.0
 14
1.0
 24
1.0
 15
0.0
 25
0.0
 16
0.0
 26
0.0
 36
1.0
 17
0.0
 27
0.0
 37
0.0
 40
518.5862309718646
 41
2.059585492227979
 42
50.0
 43
0.0
 44
0.0
 50
0.0
 51
0.0
 71
    16
 72
   100
 73
     1
 74
     0
 75
     0
 76
     0
 77
     0
 78
     0
281
     0
 65
     1
110
0.0
120
0.0
130
0.0
111
1.0
121
0.0
131
0.0
112
0.0
122
1.0
132
0.0
 79
     0
146
0.0
  0
ENDTAB
  0
TABLE
  2
LTYPE
  5
D
330
0
100
AcDbSymbolTable
 70
     2
  0
LTYPE
  5
E
330
D
100
AcDbSymbolTableRecord
100
AcDbLinetypeTableRecord
  2
BYBLOCK
 70
     0
  3

 72
    65
 73
     0
 40
0.0
  0
LTYPE
  5
F
330
D
100
AcDbSymbolTableRecord
100
AcDbLinetypeTableRecord
  2
BYLAYER
 70
     0
  3

 72
    65
 73
     0
 40
0.0
  0
LTYPE
  5
5
330
D
100
AcDbSymbolTableRecord
100
AcDbLinetypeTableRecord
  2
CONTINUOUS
 70
     0
  3
Solid line
 72
    65
 73
     0
 40
0.0
  0
LTYPE
  5
23
330
D
100
AcDbSymbolTableRecord
100
AcDbLinetypeTableRecord
  2
CENTER
 70
     0
  3
----- - ----- - ----- - ----- - -----
 72
    65
 73
     4
 40
35.0
 49
30.0
 74
     0
 49
-1.5
 74
     0
 49
2.0
 74
     0
 49
-1.5
 74
     0
  0
ENDTAB
  0
TABLE
  2
LAYER
  5
A
330
0
100
AcDbSymbolTable
 70
     4
  0
LAYER
  5
4
330
A
100
AcDbSymbolTableRecord
100
AcDbLayerTableRecord
  2
0
 70
     0
 62
     7
  6
CONTINUOUS
370
    -3
390
2FF
  0
LAYER
  5
1B
330
A
100
AcDbSymbolTableRecord
100
AcDbLayerTableRecord
  2
L-ZISSEN
 70
     0
 62
     7
  6
CONTINUOUS
370
    -3
390
2FF
  0
LAYER
  5
22
330
A
100
AcDbSymbolTableRecord
100
AcDbLayerTableRecord
  2
L-TYUSIN
 70
     0
 62
     1
  6
CENTER
370
    -3
390
2FF
  0
LAYER
  5
330
330
A
100
AcDbSymbolTableRecord
100
AcDbLayerTableRecord
  2
Defpoints
 70
     0
 62
     7
  6
CONTINUOUS
290
     0
370
    -3
390
2FF
  0
ENDTAB
  0
TABLE
  2
STYLE
  5
B
330
0
100
AcDbSymbolTable
 70
     1
  0
STYLE
  5
C
330
B
100
AcDbSymbolTableRecord
100
AcDbTextStyleTableRecord
  2
STANDARD
 70
     0
 40
0.0
 41
1.0
 50
0.0
 71
     0
 42
4.6
  3
txt.shx
  4

  0
ENDTAB
  0
TABLE
  2
VIEW
  5
10
330
0
100
AcDbSymbolTable
 70
     0
  0
ENDTAB
  0
TABLE
  2
UCS
  5
11
330
0
100
AcDbSymbolTable
 70
     0
  0
ENDTAB
  0
TABLE
  2
APPID
  5
14
330
0
100
AcDbSymbolTable
 70
     1
  0
APPID
  5
15
330
14
100
AcDbSymbolTableRecord
100
AcDbRegAppTableRecord
  2
ACAD
 70
     0
  0
ENDTAB
  0
TABLE
  2
DIMSTYLE
  5
16
330
0
100
AcDbSymbolTable
 70
     1
100
AcDbDimStyleTable
  0
DIMSTYLE
105
1D
330
16
100
AcDbSymbolTableRecord
100
AcDbDimStyleTableRecord
  2
STANDARD
 70
     0
178
     0
340
C
  0
ENDTAB
  0
TABLE
  2
BLOCK_RECORD
  5
1
330
0
100
AcDbSymbolTable
 70
     6
  0
BLOCK_RECORD
  5
2
330
1
100
AcDbSymbolTableRecord
100
AcDbBlockTableRecord
  2
*MODEL_SPACE
340
323
  0
BLOCK_RECORD
  5
7
330
1
100
AcDbSymbolTableRecord
100
AcDbBlockTableRecord
  2
*PAPER_SPACE
340
324
  0
BLOCK_RECORD
  5
334
330
1
100
AcDbSymbolTableRecord
100
AcDbBlockTableRecord
  2
*D0
340
0
  0
BLOCK_RECORD
  5
343
330
1
100
AcDbSymbolTableRecord
100
AcDbBlockTableRecord
  2
*D1
340
0
  0
BLOCK_RECORD
  5
359
330
1
100
AcDbSymbolTableRecord
100
AcDbBlockTableRecord
  2
*D2
340
0
  0
BLOCK_RECORD
  5
368
330
1
100
AcDbSymbolTableRecord
100
AcDbBlockTableRecord
  2
*D3
340
0
  0
BLOCK_RECORD
  5
377
330
1
100
AcDbSymbolTableRecord
100
AcDbBlockTableRecord
  2
*D4
340
0
  0
BLOCK_RECORD
  5
386
330
1
100
AcDbSymbolTableRecord
100
AcDbBlockTableRecord
  2
*D5
340
0
  0
ENDTAB
  0
ENDSEC
  0
SECTION
  2
BLOCKS
  0
BLOCK
  5
3
330
2
100
AcDbEntity
  8
0
100
AcDbBlockBegin
  2
*MODEL_SPACE
 70
     0
 10
0.0
 20
0.0
 30
0.0
  3
*MODEL_SPACE
  1

  0
ENDBLK
  5
6
330
2
100
AcDbEntity
  8
0
100
AcDbBlockEnd
  0
BLOCK
  5
8
330
7
100
AcDbEntity
 67
     1
  8
0
100
AcDbBlockBegin
  2
*PAPER_SPACE
 70
     0
 10
0.0
 20
0.0
 30
0.0
  3
*PAPER_SPACE
  1

  0
ENDBLK
  5
9
330
7
100
AcDbEntity
 67
     1
  8
0
100
AcDbBlockEnd
  0
BLOCK
  5
335
330
334
100
AcDbEntity
  8
0
100
AcDbBlockBegin
  2
*D0
 70
     1
 10
0.0
 20
0.0
 30
0.0
  3
*D0
  1

  0
LINE
  5
337
330
334
100
AcDbEntity
  8
L-ZISSEN
 62
     0
370
    -2
100
AcDbLine
 10
319.5
 20
208.9999999274513
 30
0.0
 11
319.5
 21
300.6078504701941
 31
0.0
  0
LINE
  5
338
330
334
100
AcDbEntity
  8
L-ZISSEN
 62
     0
370
    -2
100
AcDbLine
 10
432.5000006830491
 20
208.9999999999999
 30
0.0
 11
432.5000006830491
 21
300.6078504701941
 31
0.0
  0
LINE
  5
339
330
334
100
AcDbEntity
  8
L-ZISSEN
 62
     0
370
    -2
100
AcDbLine
 10
321.5
 20
299.6078504701941
 30
0.0
 11
430.5000006830491
 21
299.6078504701941
 31
0.0
  0
SOLID
  5
33A
330
334
100
AcDbEntity
  8
L-ZISSEN
 62
     0
100
AcDbTrace
 10
321.5
 20
299.9411838035274
 30
0.0
 11
321.5
 21
299.2745171368608
 31
0.0
 12
319.5
 22
299.6078504701941
 32
0.0
 13
319.5
 23
299.6078504701941
 33
0.0
  0
SOLID
  5
33B
330
334
100
AcDbEntity
  8
L-ZISSEN
 62
     0
100
AcDbTrace
 10
430.5000006830491
 20
299.2745171368608
 30
0.0
 11
430.5000006830491
 21
299.9411838035274
 31
0.0
 12
432.5000006830491
 22
299.6078504701941
 32
0.0
 13
432.5000006830491
 23
299.6078504701941
 33
0.0
  0
MTEXT
  5
33C
330
334
100
AcDbEntity
  8
L-ZISSEN
 62
     0
100
AcDbMText
 10
376.0000003415245
 20
300.9478504701941
 30
0.0
 40
2.5
 41
0.0
 71
     5
 72
     1
  1
\A1;113.0000
 73
     1
 44
1.0
  0
POINT
  5
33D
330
334
100
AcDbEntity
  8
Defpoints
 62
     0
100
AcDbPoint
 10
319.5
 20
207.9999999274513
 30
0.0
  0
POINT
  5
33E
330
334
100
AcDbEntity
  8
Defpoints
 62
     0
100
AcDbPoint
 10
432.5000006830491
 20
207.9999999999999
 30
0.0
  0
POINT
  5
33F
330
334
100
AcDbEntity
  8
Defpoints
 62
     0
100
AcDbPoint
 10
432.5000006830491
 20
299.6078504701941
 30
0.0
  0
ENDBLK
  5
336
330
334
100
AcDbEntity
  8
0
100
AcDbBlockEnd
  0
BLOCK
  5
344
330
343
100
AcDbEntity
  8
0
100
AcDbBlockBegin
  2
*D1
 70
     1
 10
0.0
 20
0.0
 30
0.0
  3
*D1
  1

  0
LINE
  5
346
330
343
100
AcDbEntity
  8
L-ZISSEN
 62
     0
370
    -2
100
AcDbLine
 10
446.0
 20
220.9999999999998
 30
0.0
 11
446.0
 21
315.3421980186602
 31
0.0
  0
LINE
  5
347
330
343
100
AcDbEntity
  8
L-ZISSEN
 62
     0
370
    -2
100
AcDbLine
 10
306.0000000000001
 20
220.9999999999999
 30
0.0
 11
306.0000000000001
 21
315.3421980186602
 31
0.0
  0
LINE
  5
348
330
343
100
AcDbEntity
  8
L-ZISSEN
 62
     0
370
    -2
100
AcDbLine
 10
444.0
 20
314.3421980186602
 30
0.0
 11
308.0000000000001
 21
314.3421980186602
 31
0.0
  0
SOLID
  5
349
330
343
100
AcDbEntity
  8
L-ZISSEN
 62
     0
100
AcDbTrace
 10
444.0
 20
314.0088646853269
 30
0.0
 11
444.0
 21
314.6755313519935
 31
0.0
 12
446.0
 22
314.3421980186602
 32
0.0
 13
446.0
 23
314.3421980186602
 33
0.0
  0
SOLID
  5
34A
330
343
100
AcDbEntity
  8
L-ZISSEN
 62
     0
100
AcDbTrace
 10
308.0000000000001
 20
314.6755313519935
 30
0.0
 11
308.0000000000001
 21
314.0088646853269
 31
0.0
 12
306.0000000000001
 22
314.3421980186602
 32
0.0
 13
306.0000000000001
 23
314.3421980186602
 33
0.0
  0
MTEXT
  5
34B
330
343
100
AcDbEntity
  8
L-ZISSEN
 62
     0
100
AcDbMText
 10
376.0000000000001
 20
315.6821980186602
 30
0.0
 40
2.5
 41
0.0
 71
     5
 72
     1
  1
\A1;140.0000
 73
     1
 44
1.0
  0
POINT
  5
34C
330
343
100
AcDbEntity
  8
Defpoints
 62
     0
100
AcDbPoint
 10
446.0
 20
219.9999999999998
 30
0.0
  0
POINT
  5
34D
330
343
100
AcDbEntity
  8
Defpoints
 62
     0
100
AcDbPoint
 10
306.0000000000001
 20
219.9999999999999
 30
0.0
  0
POINT
  5
34E
330
343
100
AcDbEntity
  8
Defpoints
 62
     0
100
AcDbPoint
 10
306.0000000000001
 20
314.3421980186602
 30
0.0
  0
ENDBLK
  5
345
330
343
100
AcDbEntity
  8
0
100
AcDbBlockEnd
  0
BLOCK
  5
35A
330
359
100
AcDbEntity
  8
0
100
AcDbBlockBegin
  2
*D2
 70
     1
 10
0.0
 20
0.0
 30
0.0
  3
*D2
  1

  0
LINE
  5
35C
330
359
100
AcDbEntity
  8
L-ZISSEN
 62
     0
370
    -2
100
AcDbLine
 10
99.99999999999994
 20
500.0000000000003
 30
0.0
 11
83.32035829173172
 21
500.0000000000003
 31
0.0
  0
LINE
  5
35D
330
359
100
AcDbEntity
  8
L-ZISSEN
 62
     0
370
    -2
100
AcDbLine
 10
99.99999999999989
 20
360.0000000000004
 30
0.0
 11
83.32035829173171
 21
360.0000000000004
 31
0.0
  0
LINE
  5
35E
330
359
100
AcDbEntity
  8
L-ZISSEN
 62
     0
370
    -2
100
AcDbLine
 10
84.32035829173172
 20
498.0000000000003
 30
0.0
 11
84.32035829173171
 21
362.0000000000004
 31
0.0
  0
SOLID
  5
35F
330
359
100
AcDbEntity
  8
L-ZISSEN
 62
     0
100
AcDbTrace
 10
84.65369162506505
 20
498.0000000000003
 30
0.0
 11
83.9870249583984
 21
498.0000000000003
 31
0.0
 12
84.32035829173172
 22
500.0000000000003
 32
0.0
 13
84.32035829173172
 23
500.0000000000003
 33
0.0
  0
SOLID
  5
360
330
359
100
AcDbEntity
  8
L-ZISSEN
 62
     0
100
AcDbTrace
 10
83.98702495839838
 20
362.0000000000004
 30
0.0
 11
84.65369162506504
 21
362.0000000000004
 31
0.0
 12
84.32035829173171
 22
360.0000000000004
 32
0.0
 13
84.32035829173171
 23
360.0000000000004
 33
0.0
  0
MTEXT
  5
361
330
359
100
AcDbEntity
  8
L-ZISSEN
 62
     0
100
AcDbMText
 10
82.9803582917317
 20
430.0000000000003
 30
0.0
 40
2.5
 41
0.0
 71
     5
 72
     1
  1
\A1;140.0000
 11
1.015061051085858E-16
 21
1.0
 31
0.0
 73
     1
 44
1.0
  0
POINT
  5
362
330
359
100
AcDbEntity
  8
Defpoints
 62
     0
100
AcDbPoint
 10
100.9999999999999
 20
500.0000000000003
 30
0.0
  0
POINT
  5
363
330
359
100
AcDbEntity
  8
Defpoints
 62
     0
100
AcDbPoint
 10
100.9999999999999
 20
360.0000000000004
 30
0.0
  0
POINT
  5
364
330
359
100
AcDbEntity
  8
Defpoints
 62
     0
100
AcDbPoint
 10
84.32035829173171
 20
360.0000000000004
 30
0.0
  0
ENDBLK
  5
35B
330
359
100
AcDbEntity
  8
0
100
AcDbBlockEnd
  0
BLOCK
  5
369
330
368
100
AcDbEntity
  8
0
100
AcDbBlockBegin
  2
*D3
 70
     1
 10
0.0
 20
0.0
 30
0.0
  3
*D3
  1

  0
LINE
  5
36B
330
368
100
AcDbEntity
  8
L-ZISSEN
 62
     0
370
    -2
100
AcDbLine
 10
96.50000000000001
 20
486.5000000000003
 30
0.0
 11
93.34525564754344
 21
486.5000000000003
 31
0.0
  0
LINE
  5
36C
330
368
100
AcDbEntity
  8
L-ZISSEN
 62
     0
370
    -2
100
AcDbLine
 10
96.49999999999989
 20
373.5000000000004
 30
0.0
 11
93.34525564754344
 21
373.5000000000004
 31
0.0
  0
LINE
  5
36D
330
368
100
AcDbEntity
  8
L-ZISSEN
 62
     0
370
    -2
100
AcDbLine
 10
94.34525564754344
 20
484.5000000000003
 30
0.0
 11
94.34525564754344
 21
375.5000000000004
 31
0.0
  0
SOLID
  5
36E
330
368
100
AcDbEntity
  8
L-ZISSEN
 62
     0
100
AcDbTrace
 10
94.67858898087677
 20
484.5000000000003
 30
0.0
 11
94.01192231421011
 21
484.5000000000003
 31
0.0
 12
94.34525564754344
 22
486.5000000000003
 32
0.0
 13
94.34525564754344
 23
486.5000000000003
 33
0.0
  0
SOLID
  5
36F
330
368
100
AcDbEntity
  8
L-ZISSEN
 62
     0
100
AcDbTrace
 10
94.01192231421011
 20
375.5000000000004
 30
0.0
 11
94.67858898087677
 21
375.5000000000004
 31
0.0
 12
94.34525564754344
 22
373.5000000000004
 32
0.0
 13
94.34525564754344
 23
373.5000000000004
 33
0.0
  0
MTEXT
  5
370
330
368
100
AcDbEntity
  8
L-ZISSEN
 62
     0
100
AcDbMText
 10
93.00525564754344
 20
430.0000000000003
 30
0.0
 40
2.5
 41
0.0
 71
     5
 72
     1
  1
\A1;113.0000
 11
0.0
 21
1.0
 31
0.0
 73
     1
 44
1.0
  0
POINT
  5
371
330
368
100
AcDbEntity
  8
Defpoints
 62
     0
100
AcDbPoint
 10
97.50000000000001
 20
486.5000000000003
 30
0.0
  0
POINT
  5
372
330
368
100
AcDbEntity
  8
Defpoints
 62
     0
100
AcDbPoint
 10
97.49999999999989
 20
373.5000000000004
 30
0.0
  0
POINT
  5
373
330
368
100
AcDbEntity
  8
Defpoints
 62
     0
100
AcDbPoint
 10
94.34525564754344
 20
373.5000000000004
 30
0.0
  0
ENDBLK
  5
36A
330
368
100
AcDbEntity
  8
0
100
AcDbBlockEnd
  0
BLOCK
  5
378
330
377
100
AcDbEntity
  8
0
100
AcDbBlockBegin
  2
*D4
 70
     1
 10
0.0
 20
0.0
 30
0.0
  3
*D4
  1

  0
LINE
  5
37A
330
377
100
AcDbEntity
  8
L-ZISSEN
 62
     0
370
    -2
100
AcDbLine
 10
99.99999999999994
 20
500.0000000000003
 30
0.0
 11
65.72925482901042
 21
500.0000000000003
 31
0.0
  0
LINE
  5
37B
330
377
100
AcDbEntity
  8
L-ZISSEN
 62
     0
370
    -2
100
AcDbLine
 10
99.99999999999989
 20
360.0000000000004
 30
0.0
 11
65.7292548290104
 21
360.0000000000004
 31
0.0
  0
LINE
  5
37C
330
377
100
AcDbEntity
  8
L-ZISSEN
 62
     0
370
    -2
100
AcDbLine
 10
66.72925482901042
 20
498.0000000000003
 30
0.0
 11
66.7292548290104
 21
362.0000000000004
 31
0.0
  0
SOLID
  5
37D
330
377
100
AcDbEntity
  8
L-ZISSEN
 62
     0
100
AcDbTrace
 10
67.06258816234374
 20
498.0000000000003
 30
0.0
 11
66.39592149567709
 21
498.0000000000003
 31
0.0
 12
66.72925482901042
 22
500.0000000000003
 32
0.0
 13
66.72925482901042
 23
500.0000000000003
 33
0.0
  0
SOLID
  5
37E
330
377
100
AcDbEntity
  8
L-ZISSEN
 62
     0
100
AcDbTrace
 10
66.39592149567707
 20
362.0000000000004
 30
0.0
 11
67.06258816234373
 21
362.0000000000004
 31
0.0
 12
66.7292548290104
 22
360.0000000000004
 32
0.0
 13
66.7292548290104
 23
360.0000000000004
 33
0.0
  0
MTEXT
  5
37F
330
377
100
AcDbEntity
  8
L-ZISSEN
 62
     0
100
AcDbMText
 10
65.38925482901041
 20
430.0000000000003
 30
0.0
 40
2.5
 41
0.0
 71
     5
 72
     1
  1
\A1;140.0000
 11
1.015061051085858E-16
 21
1.0
 31
0.0
 73
     1
 44
1.0
  0
POINT
  5
380
330
377
100
AcDbEntity
  8
Defpoints
 62
     0
100
AcDbPoint
 10
100.9999999999999
 20
500.0000000000003
 30
0.0
  0
POINT
  5
381
330
377
100
AcDbEntity
  8
Defpoints
 62
     0
100
AcDbPoint
 10
100.9999999999999
 20
360.0000000000004
 30
0.0
  0
POINT
  5
382
330
377
100
AcDbEntity
  8
Defpoints
 62
     0
100
AcDbPoint
 10
66.7292548290104
 20
360.0000000000004
 30
0.0
  0
ENDBLK
  5
379
330
377
100
AcDbEntity
  8
0
100
AcDbBlockEnd
  0
BLOCK
  5
387
330
386
100
AcDbEntity
  8
0
100
AcDbBlockBegin
  2
*D5
 70
     1
 10
0.0
 20
0.0
 30
0.0
  3
*D5
  1

  0
LINE
  5
389
330
386
100
AcDbEntity
  8
L-ZISSEN
 62
     0
370
    -2
100
AcDbLine
 10
96.49999999999989
 20
373.5000000000004
 30
0.0
 11
80.08043436587126
 21
373.5000000000004
 31
0.0
  0
LINE
  5
38A
330
386
100
AcDbEntity
  8
L-ZISSEN
 62
     0
370
    -2
100
AcDbLine
 10
96.50000000000001
 20
486.5000000000003
 30
0.0
 11
80.08043436587126
 21
486.5000000000003
 31
0.0
  0
LINE
  5
38B
330
386
100
AcDbEntity
  8
L-ZISSEN
 62
     0
370
    -2
100
AcDbLine
 10
81.08043436587126
 20
375.5000000000004
 30
0.0
 11
81.08043436587126
 21
484.5000000000003
 31
0.0
  0
SOLID
  5
38C
330
386
100
AcDbEntity
  8
L-ZISSEN
 62
     0
100
AcDbTrace
 10
80.74710103253793
 20
375.5000000000004
 30
0.0
 11
81.41376769920458
 21
375.5000000000004
 31
0.0
 12
81.08043436587126
 22
373.5000000000004
 32
0.0
 13
81.08043436587126
 23
373.5000000000004
 33
0.0
  0
SOLID
  5
38D
330
386
100
AcDbEntity
  8
L-ZISSEN
 62
     0
100
AcDbTrace
 10
81.41376769920458
 20
484.5000000000003
 30
0.0
 11
80.74710103253793
 21
484.5000000000003
 31
0.0
 12
81.08043436587126
 22
486.5000000000003
 32
0.0
 13
81.08043436587126
 23
486.5000000000003
 33
0.0
  0
MTEXT
  5
38E
330
386
100
AcDbEntity
  8
L-ZISSEN
 62
     0
100
AcDbMText
 10
79.74043436587125
 20
430.0000000000003
 30
0.0
 40
2.5
 41
0.0
 71
     5
 72
     1
  1
\A1;113.0000
 11
0.0
 21
1.0
 31
0.0
 73
     1
 44
1.0
  0
POINT
  5
38F
330
386
100
AcDbEntity
  8
Defpoints
 62
     0
100
AcDbPoint
 10
97.49999999999989
 20
373.5000000000004
 30
0.0
  0
POINT
  5
390
330
386
100
AcDbEntity
  8
Defpoints
 62
     0
100
AcDbPoint
 10
97.50000000000001
 20
486.5000000000003
 30
0.0
  0
POINT
  5
391
330
386
100
AcDbEntity
  8
Defpoints
 62
     0
100
AcDbPoint
 10
81.08043436587126
 20
486.5000000000003
 30
0.0
  0
ENDBLK
  5
388
330
386
100
AcDbEntity
  8
0
100
AcDbBlockEnd
  0
ENDSEC
  0
SECTION
  2
ENTITIES
  0
CIRCLE
  5
1E
330
2
100
AcDbEntity
  8
L-ZISSEN
100
AcDbCircle
 10
568.4462269261851
 20
261.9999999999999
 30
5.0
 40
8.75
  0
LINE
  5
1F
330
2
100
AcDbEntity
  8
L-ZISSEN
100
AcDbLine
 10
557.246226926185
 20
277.9999999999998
 30
5.0
 11
602.4462269261853
 21
278.0
 31
5.0
  0
LINE
  5
20
330
2
100
AcDbEntity
  8
L-ZISSEN
100
AcDbLine
 10
557.246226926185
 20
245.9999999999999
 30
5.0
 11
602.4462269261853
 21
245.9999999999999
 31
5.0
  0
LINE
  5
21
330
2
100
AcDbEntity
  8
L-TYUSIN
100
AcDbLine
 10
553.746226926185
 20
261.9999999999999
 30
5.0
 11
643.4462269261854
 21
261.9999999999999
 31
5.0
  0
LINE
  5
24
330
2
100
AcDbEntity
  8
L-TYUSIN
100
AcDbLine
 10
151.0
 20
290.0000000000004
 30
0.0
 11
151.0
 21
119.4999999999999
 31
0.0
  0
LINE
  5
25
330
2
100
AcDbEntity
  8
L-TYUSIN
100
AcDbLine
 10
375.9999999999999
 20
289.9999999999999
 30
0.0
 11
376.0000000000001
 21
119.4999999999999
 31
0.0
  0
CIRCLE
  5
26
330
2
100
AcDbEntity
  8
L-ZISSEN
100
AcDbCircle
 10
125.0000000000002
 20
196.0
 30
0.0
 40
4.999999999999943
  0
LINE
  5
27
330
2
100
AcDbEntity
  8
L-ZISSEN
100
AcDbLine
 10
118.0000000000002
 20
219.9999999999998
 30
0.0
 11
118.0000000000005
 21
146.0
 31
0.0
  0
LINE
  5
28
330
2
100
AcDbEntity
  8
L-ZISSEN
100
AcDbLine
 10
104.2000000000001
 20
219.9999999999999
 30
0.0
 11
104.2000000000001
 21
195.9999999999999
 31
0.0
  0
LINE
  5
29
330
2
100
AcDbEntity
  8
L-ZISSEN
100
AcDbLine
 10
101.0000000000003
 20
219.9999999999999
 30
0.0
 11
101.0000000000003
 21
195.9999999999999
 31
0.0
  0
CIRCLE
  5
2A
330
2
100
AcDbEntity
  8
L-ZISSEN
100
AcDbCircle
 10
177.0000000000003
 20
196.0
 30
0.0
 40
4.999999999999943
  0
LINE
  5
2B
330
2
100
AcDbEntity
  8
L-ZISSEN
100
AcDbLine
 10
184.0000000000003
 20
146.0
 30
0.0
 11
184.0000000000002
 21
218.9999999999998
 31
0.0
  0
LINE
  5
2C
330
2
100
AcDbEntity
  8
L-ZISSEN
100
AcDbLine
 10
124.0000000000002
 20
123.5
 30
0.0
 11
134.0000000000002
 21
123.4999999999999
 31
0.0
  0
LINE
  5
2D
330
2
100
AcDbEntity
  8
L-ZISSEN
100
AcDbLine
 10
123.0000000000002
 20
135.0
 30
0.0
 11
179.0000000000003
 21
135.0
 31
0.0
  0
LINE
  5
2E
330
2
100
AcDbEntity
  8
L-ZISSEN
100
AcDbLine
 10
123.0000000000002
 20
130.5
 30
0.0
 11
179.0000000000001
 21
130.4999999999999
 31
0.0
  0
LINE
  5
2F
330
2
100
AcDbEntity
  8
L-ZISSEN
100
AcDbLine
 10
184.0000000000003
 20
146.0
 30
0.0
 11
118.0000000000002
 21
146.0
 31
0.0
  0
CIRCLE
  5
30
330
2
100
AcDbEntity
  8
L-ZISSEN
100
AcDbCircle
 10
125.0
 20
151.9999999999999
 30
0.0
 40
4.999999999999943
  0
LINE
  5
31
330
2
100
AcDbEntity
  8
L-TYUSIN
100
AcDbLine
 10
187.5000000000003
 20
174.0000000000001
 30
0.0
 11
114.5000000000004
 21
174.0000000000001
 31
0.0
  0
LINE
  5
32
330
2
100
AcDbEntity
  8
L-ZISSEN
100
AcDbLine
 10
124.0000000000002
 20
123.5
 30
0.0
 11
124.0000000000002
 21
130.4999999999999
 31
0.0
  0
LINE
  5
33
330
2
100
AcDbEntity
  8
L-ZISSEN
100
AcDbLine
 10
123.0000000000002
 20
130.5
 30
0.0
 11
123.0000000000002
 21
146.0
 31
0.0
  0
LINE
  5
34
330
2
100
AcDbEntity
  8
L-ZISSEN
100
AcDbLine
 10
118.0000000000002
 20
195.9999999999998
 30
0.0
 11
101.0000000000003
 21
195.9999999999997
 31
0.0
  0
CIRCLE
  5
35
330
2
100
AcDbEntity
  8
L-ZISSEN
100
AcDbCircle
 10
151.0000000000002
 20
174.0
 30
0.0
 40
22.5
  0
CIRCLE
  5
36
330
2
100
AcDbEntity
  8
L-ZISSEN
100
AcDbCircle
 10
177.0000000000001
 20
151.9999999999999
 30
0.0
 40
4.999999999999943
  0
LINE
  5
37
330
2
100
AcDbEntity
  8
L-ZISSEN
100
AcDbLine
 10
168.0000000000003
 20
123.5
 30
0.0
 11
178.0000000000003
 21
123.5
 31
0.0
  0
LINE
  5
38
330
2
100
AcDbEntity
  8
L-ZISSEN
100
AcDbLine
 10
168.0000000000003
 20
123.5
 30
0.0
 11
168.0000000000003
 21
130.4999999999999
 31
0.0
  0
LINE
  5
39
330
2
100
AcDbEntity
  8
L-ZISSEN
100
AcDbLine
 10
134.0000000000002
 20
123.4999999999999
 30
0.0
 11
134.0000000000002
 21
130.4999999999999
 31
0.0
  0
LINE
  5
3A
330
2
100
AcDbEntity
  8
L-ZISSEN
100
AcDbLine
 10
134.0000000000002
 20
127.4999999999999
 30
0.0
 11
168.0000000000003
 21
127.4999999999999
 31
0.0
  0
LINE
  5
3B
330
2
100
AcDbEntity
  8
L-ZISSEN
100
AcDbLine
 10
178.0000000000003
 20
123.5
 30
0.0
 11
178.0000000000003
 21
130.4999999999999
 31
0.0
  0
LINE
  5
3C
330
2
100
AcDbEntity
  8
L-ZISSEN
100
AcDbLine
 10
179.0000000000001
 20
130.4999999999999
 30
0.0
 11
179.0000000000003
 21
146.0
 31
0.0
  0
CIRCLE
  5
3D
330
2
100
AcDbEntity
  8
L-ZISSEN
100
AcDbCircle
 10
151.0000000000002
 20
174.0000000000001
 30
0.0
 40
15.1455
  0
LINE
  5
3E
330
2
100
AcDbEntity
  8
L-ZISSEN
100
AcDbLine
 10
124.0
 20
236.5000000000002
 30
0.0
 11
134.0
 21
236.5000000000003
 31
0.0
  0
LINE
  5
3F
330
2
100
AcDbEntity
  8
L-ZISSEN
100
AcDbLine
 10
136.0
 20
218.9999999999999
 30
0.0
 11
118.0000000000002
 21
218.9999999999999
 31
0.0
  0
LINE
  5
40
330
2
100
AcDbEntity
  8
L-ZISSEN
100
AcDbLine
 10
118.0
 20
203.3538462074014
 30
0.0
 11
136.0000000000002
 21
203.3538462074014
 31
0.0
  0
LINE
  5
41
330
2
100
AcDbEntity
  8
L-ZISSEN
100
AcDbLine
 10
174.5000000000001
 20
238.0
 30
0.0
 11
122.5
 21
238.0000000000001
 31
0.0
  0
LINE
  5
42
330
2
100
AcDbEntity
  8
L-ZISSEN
100
AcDbLine
 10
182.5
 20
229.0000000000003
 30
0.0
 11
119.5
 21
229.0
 31
0.0
  0
LINE
  5
43
330
2
100
AcDbEntity
  8
L-ZISSEN
100
AcDbLine
 10
182.5000000000003
 20
219.9999999999999
 30
0.0
 11
119.5000000000002
 21
219.9999999999999
 31
0.0
  0
LINE
  5
44
330
2
100
AcDbEntity
  8
L-ZISSEN
100
AcDbLine
 10
184.0000000000003
 20
201.9999999999999
 30
0.0
 11
118.0000000000005
 21
201.9999999999999
 31
0.0
  0
LINE
  5
45
330
2
100
AcDbEntity
  8
L-ZISSEN
100
AcDbLine
 10
149.3784557663126
 20
239.170723835153
 30
0.0
 11
110.7440463500656
 21
267.0640264173467
 31
0.0
  0
LINE
  5
46
330
2
100
AcDbEntity
  8
L-ZISSEN
100
AcDbLine
 10
119.5
 20
229.0
 30
0.0
 11
119.5
 21
219.0
 31
0.0
  0
LINE
  5
47
330
2
100
AcDbEntity
  8
L-TYUSIN
100
AcDbLine
 10
107.7000000000001
 20
208.0000000000001
 30
0.0
 11
97.50000000000027
 21
208.0000000000001
 31
0.0
  0
LINE
  5
48
330
2
100
AcDbEntity
  8
L-ZISSEN
100
AcDbLine
 10
118.0000000000002
 20
219.9999999999998
 30
0.0
 11
101.0000000000003
 21
219.9999999999998
 31
0.0
  0
LINE
  5
49
330
2
100
AcDbEntity
  8
L-ZISSEN
100
AcDbLine
 10
122.5
 20
238.0000000000001
 30
0.0
 11
122.5
 21
229.0
 31
0.0
  0
LINE
  5
4A
330
2
100
AcDbEntity
  8
L-ZISSEN
100
AcDbLine
 10
124.0
 20
236.5000000000002
 30
0.0
 11
124.0
 21
229.0
 31
0.0
  0
TEXT
  5
4B
330
2
100
AcDbEntity
  8
L-ZISSEN
100
AcDbText
 10
96.92400197588047
 20
264.7703953087039
 30
0.0
 40
4.6
  1
P.P-
100
AcDbText
  0
LINE
  5
4C
330
2
100
AcDbEntity
  8
L-ZISSEN
100
AcDbLine
 10
135.0000000000001
 20
245.9999999999999
 30
0.0
 11
135.0000000000001
 21
238.0000000000001
 31
0.0
  0
LINE
  5
4D
330
2
100
AcDbEntity
  8
L-ZISSEN
100
AcDbLine
 10
167.0000000000001
 20
245.9999999999999
 30
0.0
 11
167.0000000000001
 21
238.0
 31
0.0
  0
LINE
  5
4E
330
2
100
AcDbEntity
  8
L-ZISSEN
100
AcDbLine
 10
178.0
 20
236.5000000000002
 30
0.0
 11
168.0
 21
236.5000000000003
 31
0.0
  0
LINE
  5
4F
330
2
100
AcDbEntity
  8
L-ZISSEN
100
AcDbLine
 10
166.0000000000002
 20
218.9999999999999
 30
0.0
 11
184.0000000000002
 21
218.9999999999999
 31
0.0
  0
LINE
  5
50
330
2
100
AcDbEntity
  8
L-ZISSEN
100
AcDbLine
 10
184.0000000000003
 20
203.3538462074014
 30
0.0
 11
166.0000000000002
 21
203.3538462074014
 31
0.0
  0
LINE
  5
51
330
2
100
AcDbEntity
  8
L-ZISSEN
100
AcDbLine
 10
143.0
 20
229.0000000000001
 30
0.0
 11
143.0
 21
220.0000000000001
 31
0.0
  0
LINE
  5
52
330
2
100
AcDbEntity
  8
L-ZISSEN
100
AcDbLine
 10
159.0
 20
229.0000000000002
 30
0.0
 11
159.0
 21
220.0000000000001
 31
0.0
  0
LINE
  5
53
330
2
100
AcDbEntity
  8
L-ZISSEN
100
AcDbLine
 10
158.5
 20
204.000000000003
 30
0.0
 11
143.5000000000005
 21
204.000000000003
 31
0.0
  0
LINE
  5
54
330
2
100
AcDbEntity
  8
L-ZISSEN
100
AcDbLine
 10
143.5000000000011
 20
219.9999999999999
 30
0.0
 11
143.5000000000005
 21
204.000000000003
 31
0.0
  0
LINE
  5
55
330
2
100
AcDbEntity
  8
L-ZISSEN
100
AcDbLine
 10
136.0
 20
219.0000000000001
 30
0.0
 11
136.0000000000002
 21
203.3538462074015
 31
0.0
  0
LINE
  5
56
330
2
100
AcDbEntity
  8
L-ZISSEN
100
AcDbLine
 10
166.0000000000002
 20
219.0000000000001
 30
0.0
 11
166.0000000000002
 21
203.3538462074015
 31
0.0
  0
LINE
  5
57
330
2
100
AcDbEntity
  8
L-ZISSEN
100
AcDbLine
 10
158.4999999999993
 20
219.9999999999999
 30
0.0
 11
158.5
 21
204.000000000003
 31
0.0
  0
LINE
  5
58
330
2
100
AcDbEntity
  8
L-ZISSEN
100
AcDbLine
 10
136.2536834373695
 20
229.0000000000001
 30
0.0
 11
136.2536834373695
 21
238.0000000000001
 31
0.0
  0
LINE
  5
59
330
2
100
AcDbEntity
  8
L-ZISSEN
100
AcDbLine
 10
134.0
 20
236.5000000000003
 30
0.0
 11
134.0
 21
229.0000000000001
 31
0.0
  0
LINE
  5
5A
330
2
100
AcDbEntity
  8
L-ZISSEN
100
AcDbLine
 10
165.7463165626301
 20
229.0000000000002
 30
0.0
 11
165.7463165626302
 21
238.0000000000001
 31
0.0
  0
LINE
  5
5B
330
2
100
AcDbEntity
  8
L-ZISSEN
100
AcDbLine
 10
168.0
 20
236.5000000000003
 30
0.0
 11
168.0
 21
229.0000000000003
 31
0.0
  0
SOLID
  5
5C
330
2
100
AcDbEntity
  8
L-ZISSEN
100
AcDbTrace
 10
149.1833351271205
 20
238.9004664628718
 30
0.0
 11
149.5735764055047
 21
239.4409812074342
 31
0.0
 12
151.0
 22
238.0000000000001
 32
0.0
 13
151.0
 23
238.0000000000001
 33
0.0
  0
LINE
  5
5D
330
2
100
AcDbEntity
  8
L-ZISSEN
100
AcDbLine
 10
182.5
 20
229.0000000000003
 30
0.0
 11
182.5
 21
219.0
 31
0.0
  0
LINE
  5
5E
330
2
100
AcDbEntity
  8
L-ZISSEN
100
AcDbLine
 10
178.0
 20
236.5000000000002
 30
0.0
 11
178.0
 21
229.0000000000003
 31
0.0
  0
LINE
  5
5F
330
2
100
AcDbEntity
  8
L-ZISSEN
100
AcDbLine
 10
174.5000000000001
 20
236.5000000000003
 30
0.0
 11
174.5000000000001
 21
238.0000000000001
 31
0.0
  0
LINE
  5
60
330
2
100
AcDbEntity
  8
L-ZISSEN
100
AcDbLine
 10
180.5000000000001
 20
245.9999999999999
 30
0.0
 11
129.4999999999998
 21
245.9999999999999
 31
0.0
  0
LINE
  5
61
330
2
100
AcDbEntity
  8
L-ZISSEN
100
AcDbLine
 10
180.5000000000002
 20
277.9999999999999
 30
0.0
 11
129.5
 21
277.9999999999999
 31
0.0
  0
LINE
  5
62
330
2
100
AcDbEntity
  8
L-ZISSEN
100
AcDbLine
 10
129.4999999999998
 20
245.9999999999999
 30
0.0
 11
129.5
 21
277.9999999999999
 31
0.0
  0
CIRCLE
  5
63
330
2
100
AcDbEntity
  8
L-ZISSEN
100
AcDbCircle
 10
150.9999999999999
 20
262.0000000000001
 30
0.0
 40
10.00000000000003
  0
LINE
  5
64
330
2
100
AcDbEntity
  8
L-ZISSEN
  6
Continuous
100
AcDbLine
 10
155.0
 20
286.5000000000004
 30
0.0
 11
147.0
 21
286.5000000000004
 31
0.0
  0
LINE
  5
65
330
2
100
AcDbEntity
  8
L-ZISSEN
100
AcDbLine
 10
167.0000000000001
 20
286.0000000000001
 30
0.0
 11
135.0000000000001
 21
286.0
 31
0.0
  0
LINE
  5
66
330
2
100
AcDbEntity
  8
L-ZISSEN
100
AcDbLine
 10
135.0000000000001
 20
286.0
 30
0.0
 11
135.0000000000001
 21
277.9999999999999
 31
0.0
  0
LINE
  5
67
330
2
100
AcDbEntity
  8
L-ZISSEN
100
AcDbLine
 10
147.0
 20
286.0000000000005
 30
0.0
 11
147.0
 21
286.5000000000004
 31
0.0
  0
LINE
  5
68
330
2
100
AcDbEntity
  8
L-ZISSEN
100
AcDbLine
 10
155.0
 20
286.0000000000005
 30
0.0
 11
155.0
 21
286.5000000000004
 31
0.0
  0
LINE
  5
69
330
2
100
AcDbEntity
  8
L-ZISSEN
100
AcDbLine
 10
167.0000000000001
 20
286.0000000000001
 30
0.0
 11
167.0000000000001
 21
277.9999999999999
 31
0.0
  0
LINE
  5
6A
330
2
100
AcDbEntity
  8
L-ZISSEN
100
AcDbLine
 10
212.2000000000002
 20
275.7499999999999
 30
0.0
 11
212.2000000000002
 21
248.2499999999999
 31
0.0
  0
LINE
  5
6B
330
2
100
AcDbEntity
  8
L-ZISSEN
100
AcDbLine
 10
172.5000000000001
 20
245.9999999999999
 30
0.0
 11
172.5000000000002
 21
277.9999999999999
 31
0.0
  0
LINE
  5
6C
330
2
100
AcDbEntity
  8
L-ZISSEN
100
AcDbLine
 10
180.5000000000001
 20
245.9999999999999
 30
0.0
 11
180.5000000000005
 21
277.9999999999999
 31
0.0
  0
LINE
  5
6D
330
2
100
AcDbEntity
  8
L-ZISSEN
100
AcDbLine
 10
212.2000000000002
 20
248.2499999999999
 30
0.0
 11
180.5000000000001
 21
248.2499999999999
 31
0.0
  0
LINE
  5
6E
330
2
100
AcDbEntity
  8
L-ZISSEN
100
AcDbLine
 10
212.2000000000002
 20
275.7499999999999
 30
0.0
 11
180.5000000000002
 21
275.75
 31
0.0
  0
LINE
  5
6F
330
2
100
AcDbEntity
  8
L-ZISSEN
100
AcDbLine
 10
403.0
 20
237.5000000000001
 30
0.0
 11
393.0
 21
237.5000000000003
 31
0.0
  0
LINE
  5
70
330
2
100
AcDbEntity
  8
L-ZISSEN
100
AcDbLine
 10
409.0
 20
134.9999999999999
 30
0.0
 11
343.0
 21
134.9999999999999
 31
0.0
  0
LINE
  5
71
330
2
100
AcDbEntity
  8
L-ZISSEN
100
AcDbLine
 10
343.0
 20
130.4999999999999
 30
0.0
 11
409.0
 21
130.4999999999999
 31
0.0
  0
LINE
  5
72
330
2
100
AcDbEntity
  8
L-ZISSEN
100
AcDbLine
 10
356.2500000000001
 20
127.4999999999998
 30
0.0
 11
395.7500000000001
 21
127.4999999999998
 31
0.0
  0
LINE
  5
73
102
{ACAD_REACTORS
330
342
102
}
330
2
100
AcDbEntity
  8
L-ZISSEN
100
AcDbLine
 10
446.0
 20
219.9999999999999
 30
0.0
 11
306.0000000000001
 21
219.9999999999999
 31
0.0
  0
LINE
  5
74
330
2
100
AcDbEntity
  8
L-ZISSEN
100
AcDbLine
 10
407.4999999999999
 20
230.0000000000001
 30
0.0
 11
337.0000000000001
 21
230.0000000000001
 31
0.0
  0
LINE
  5
75
330
2
100
AcDbEntity
  8
L-TYUSIN
100
AcDbLine
 10
320.0000000000001
 20
174.0
 30
0.0
 11
432.0
 21
174.0
 31
0.0
  0
LINE
  5
76
330
2
100
AcDbEntity
  8
L-ZISSEN
100
AcDbLine
 10
400.0717967697248
 20
214.9999999999999
 30
0.0
 11
382.0000000000002
 21
214.9999999999999
 31
0.0
  0
LINE
  5
77
330
2
100
AcDbEntity
  8
L-ZISSEN
100
AcDbLine
 10
350.0000000000001
 20
238.0000000000001
 30
0.0
 11
401.9999999999997
 21
238.0
 31
0.0
  0
LINE
  5
78
330
2
100
AcDbEntity
  8
L-ZISSEN
100
AcDbLine
 10
377.6215442336872
 20
239.170723835153
 30
0.0
 11
416.2559536499343
 21
267.0640264173467
 31
0.0
  0
LINE
  5
79
330
2
100
AcDbEntity
  8
L-ZISSEN
100
AcDbLine
 10
343.0
 20
130.4999999999999
 30
0.0
 11
343.0
 21
203.2540333075848
 31
0.0
  0
LINE
  5
7A
330
2
100
AcDbEntity
  8
L-ZISSEN
100
AcDbLine
 10
327.4999999999998
 20
191.0
 30
0.0
 11
327.5
 21
201.0
 31
0.0
  0
LINE
  5
7B
330
2
100
AcDbEntity
  8
L-ZISSEN
100
AcDbLine
 10
334.9999999999999
 20
202.0
 30
0.0
 11
334.9999999999999
 21
146.0
 31
0.0
  0
LINE
  5
7C
330
2
100
AcDbEntity
  8
L-ZISSEN
100
AcDbLine
 10
306.0000000000001
 20
219.9999999999998
 30
0.0
 11
306.0000000000001
 21
195.9999999999998
 31
0.0
  0
LINE
  5
7D
330
2
100
AcDbEntity
  8
L-ZISSEN
100
AcDbLine
 10
348.0
 20
175.0
 30
0.0
 11
348.0
 21
203.583801512904
 31
0.0
  0
ARC
  5
7E
330
2
100
AcDbEntity
  8
L-ZISSEN
100
AcDbCircle
 10
376.0
 20
202.9999999999999
 30
0.0
 40
6.0
100
AcDbArc
 50
180.0
 51
359.9999999999994
  0
LINE
  5
7F
330
2
100
AcDbEntity
  8
L-ZISSEN
100
AcDbLine
 10
320.0
 20
196.5
 30
0.0
 11
320.0000000000001
 21
151.5
 31
0.0
  0
LINE
  5
80
330
2
100
AcDbEntity
  8
L-ZISSEN
100
AcDbLine
 10
327.4999999999998
 20
157.0
 30
0.0
 11
327.5
 21
147.0
 31
0.0
  0
LINE
  5
81
330
2
100
AcDbEntity
  8
L-ZISSEN
100
AcDbLine
 10
348.0
 20
146.0
 30
0.0
 11
348.0
 21
157.0000000000007
 31
0.0
  0
LINE
  5
82
330
2
100
AcDbEntity
  8
L-ZISSEN
100
AcDbLine
 10
355.0
 20
123.4999999999999
 30
0.0
 11
345.0
 21
123.4999999999999
 31
0.0
  0
LINE
  5
83
330
2
100
AcDbEntity
  8
L-ZISSEN
100
AcDbLine
 10
345.0
 20
123.4999999999999
 30
0.0
 11
345.0
 21
130.4999999999999
 31
0.0
  0
LINE
  5
84
330
2
100
AcDbEntity
  8
L-ZISSEN
100
AcDbLine
 10
320.0000000000001
 20
151.5
 30
0.0
 11
327.4999999999999
 21
151.5
 31
0.0
  0
LINE
  5
85
330
2
100
AcDbEntity
  8
L-ZISSEN
100
AcDbLine
 10
335.0
 20
146.0
 30
0.0
 11
348.0
 21
146.0
 31
0.0
  0
LINE
  5
86
330
2
100
AcDbEntity
  8
L-ZISSEN
100
AcDbLine
 10
327.5
 20
147.0
 30
0.0
 11
334.9999999999999
 21
147.0
 31
0.0
  0
LINE
  5
87
330
2
100
AcDbEntity
  8
L-ZISSEN
100
AcDbLine
 10
356.2500000000001
 20
130.4999999999999
 30
0.0
 11
356.2500000000001
 21
127.4999999999999
 31
0.0
  0
LINE
  5
88
330
2
100
AcDbEntity
  8
L-ZISSEN
100
AcDbLine
 10
355.0
 20
123.4999999999999
 30
0.0
 11
355.0
 21
130.4999999999999
 31
0.0
  0
LINE
  5
89
330
2
100
AcDbEntity
  8
L-ZISSEN
100
AcDbLine
 10
352.0
 20
175.0
 30
0.0
 11
348.0
 21
175.0
 31
0.0
  0
LINE
  5
8A
330
2
100
AcDbEntity
  8
L-ZISSEN
100
AcDbLine
 10
352.0
 20
157.0000000000001
 30
0.0
 11
348.0
 21
157.0000000000001
 31
0.0
  0
ARC
  5
8B
330
2
100
AcDbEntity
  8
L-ZISSEN
100
AcDbCircle
 10
352.0
 20
166.0
 30
0.0
 40
9.0
100
AcDbArc
 50
270.0
 51
90.00001530102409
  0
LINE
  5
8C
330
2
100
AcDbEntity
  8
L-ZISSEN
100
AcDbLine
 10
327.4999999999998
 20
157.0
 30
0.0
 11
334.9999999999999
 21
157.0
 31
0.0
  0
LINE
  5
8D
330
2
100
AcDbEntity
  8
L-ZISSEN
100
AcDbLine
 10
320.0000000000001
 20
196.5
 30
0.0
 11
327.4999999999999
 21
196.5
 31
0.0
  0
LINE
  5
8E
330
2
100
AcDbEntity
  8
L-ZISSEN
100
AcDbLine
 10
306.0000000000001
 20
195.9999999999998
 30
0.0
 11
320.0000000000001
 21
196.0
 31
0.0
  0
LINE
  5
8F
330
2
100
AcDbEntity
  8
L-ZISSEN
100
AcDbLine
 10
306.0
 20
195.9999999999998
 30
0.0
 11
320.0
 21
196.0
 31
0.0
  0
LINE
  5
90
330
2
100
AcDbEntity
  8
L-ZISSEN
100
AcDbLine
 10
327.4999999999998
 20
191.0
 30
0.0
 11
334.9999999999999
 21
191.0000000000001
 31
0.0
  0
LINE
  5
91
330
2
100
AcDbEntity
  8
L-ZISSEN
100
AcDbLine
 10
303.579713563037
 20
269.2499959938885
 30
0.0
 11
305.4999999999995
 21
269.2499959938885
 31
0.0
  0
LINE
  5
92
330
2
100
AcDbEntity
  8
L-ZISSEN
100
AcDbLine
 10
303.5797135630373
 20
254.7499959938872
 30
0.0
 11
305.4999999999994
 21
254.7499959938872
 31
0.0
  0
ARC
  5
93
330
2
100
AcDbEntity
  8
L-ZISSEN
100
AcDbCircle
 10
305.4999999999995
 20
261.9999959938872
 30
0.0
 40
7.5
100
AcDbArc
 50
104.8351115819392
 51
255.1648884180609
  0
LINE
  5
94
330
2
100
AcDbEntity
  8
L-ZISSEN
100
AcDbLine
 10
391.9999999999995
 20
238.0
 30
0.0
 11
391.9999999999995
 21
267.4869070392155
 31
0.0
  0
LINE
  5
95
330
2
100
AcDbEntity
  8
L-ZISSEN
100
AcDbLine
 10
357.7999999999995
 20
239.5000000000001
 30
0.0
 11
357.7999999999995
 21
250.8
 31
0.0
  0
LINE
  5
96
330
2
100
AcDbEntity
  8
L-ZISSEN
100
AcDbLine
 10
384.5000000000002
 20
245.6000000000001
 30
0.0
 11
384.5000000000002
 21
242.0000000000002
 31
0.0
  0
LINE
  5
97
330
2
100
AcDbEntity
  8
L-ZISSEN
100
AcDbLine
 10
377.5000000000001
 20
245.6000000000001
 30
0.0
 11
377.5000000000001
 21
242.0000000000001
 31
0.0
  0
LINE
  5
98
330
2
100
AcDbEntity
  8
L-ZISSEN
100
AcDbLine
 10
360.5
 20
250.8000000000001
 30
0.0
 11
360.5
 21
238.0000000000001
 31
0.0
  0
LINE
  5
99
330
2
100
AcDbEntity
  8
L-ZISSEN
100
AcDbLine
 10
364.5
 20
252.85
 30
0.0
 11
364.5
 21
238.0000000000001
 31
0.0
  0
LINE
  5
9A
330
2
100
AcDbEntity
  8
L-ZISSEN
100
AcDbLine
 10
360.0999999999999
 20
230.0000000000001
 30
0.0
 11
347.9999999999999
 21
230.0000000000002
 31
0.0
  0
ARC
  5
9B
330
2
100
AcDbEntity
  8
L-ZISSEN
100
AcDbCircle
 10
345.0
 20
210.9999999999999
 30
0.0
 40
8.0
100
AcDbArc
 50
292.0243128370414
 51
255.5224878140698
  0
LINE
  5
9C
330
2
100
AcDbEntity
  8
L-ZISSEN
100
AcDbLine
 10
344.5
 20
220.0000000000001
 30
0.0
 11
344.5
 21
230.0000000000001
 31
0.0
  0
LINE
  5
9D
330
2
100
AcDbEntity
  8
L-ZISSEN
100
AcDbLine
 10
337.0000000000001
 20
230.0000000000001
 30
0.0
 11
337.0
 21
214.9999999999999
 31
0.0
  0
ARC
  5
9E
330
2
100
AcDbEntity
  8
L-ZISSEN
100
AcDbCircle
 10
324.0
 20
208.0000000000001
 30
0.0
 40
4.5
100
AcDbArc
 50
270.0000065942239
 51
89.99998971089147
  0
LINE
  5
9F
102
{ACAD_REACTORS
330
333
102
}
330
2
100
AcDbEntity
  8
L-TYUSIN
100
AcDbLine
 10
310.5
 20
208.0000000000001
 30
0.0
 11
328.5
 21
207.9999998549024
 31
0.0
  0
ARC
  5
A0
330
2
100
AcDbEntity
  8
L-ZISSEN
100
AcDbCircle
 10
315.0
 20
208.0000000000001
 30
0.0
 40
4.5
100
AcDbArc
 50
89.99998313772026
 51
270.0000162302957
  0
LINE
  5
A1
330
2
100
AcDbEntity
  8
L-TYUSIN
100
AcDbLine
 10
319.5000005699086
 20
212.5000000000001
 30
0.0
 11
319.5000002589546
 21
203.5000000000001
 31
0.0
  0
LINE
  5
A2
330
2
100
AcDbEntity
  8
L-ZISSEN
100
AcDbLine
 10
324.0000005179091
 20
203.5000000000001
 30
0.0
 11
315.0
 21
203.5000000000001
 31
0.0
  0
LINE
  5
A3
330
2
100
AcDbEntity
  8
L-ZISSEN
100
AcDbLine
 10
324.0
 20
212.5000000000001
 30
0.0
 11
315.0000011398172
 21
212.5000000000001
 31
0.0
  0
LINE
  5
A4
330
2
100
AcDbEntity
  8
L-ZISSEN
100
AcDbLine
 10
337.0000000000002
 20
202.0
 30
0.0
 11
337.0000000000002
 21
219.9999999999999
 31
0.0
  0
LINE
  5
A5
330
2
100
AcDbEntity
  8
L-ZISSEN
100
AcDbLine
 10
333.8
 20
220.0000000000001
 30
0.0
 11
333.8
 21
201.0
 31
0.0
  0
CIRCLE
  5
A6
330
2
100
AcDbEntity
  8
L-ZISSEN
100
AcDbCircle
 10
345.0
 20
210.9999999999999
 30
0.0
 40
3.375
  0
LINE
  5
A7
330
2
100
AcDbEntity
  8
L-ZISSEN
100
AcDbLine
 10
334.9999999999999
 20
202.0
 30
0.0
 11
343.0
 21
202.0
 31
0.0
  0
LINE
  5
A8
330
2
100
AcDbEntity
  8
L-ZISSEN
100
AcDbLine
 10
327.5
 20
201.0
 30
0.0
 11
334.9999999999999
 21
201.0
 31
0.0
  0
LINE
  5
A9
330
2
100
AcDbEntity
  8
L-ZISSEN
100
AcDbLine
 10
337.0000000000002
 20
214.9999999999999
 30
0.0
 11
338.0717967697246
 21
214.9999999999999
 31
0.0
  0
LINE
  5
AA
330
2
100
AcDbEntity
  8
L-ZISSEN
100
AcDbLine
 10
370.0
 20
214.9999999999999
 30
0.0
 11
370.0
 21
202.9999999999999
 31
0.0
  0
LINE
  5
AB
330
2
100
AcDbEntity
  8
L-ZISSEN
100
AcDbLine
 10
351.9282032302754
 20
214.9999999999999
 30
0.0
 11
370.0
 21
214.9999999999999
 31
0.0
  0
LINE
  5
AC
330
2
100
AcDbEntity
  8
L-ZISSEN
100
AcDbLine
 10
382.0000000000002
 20
214.9999999999999
 30
0.0
 11
382.0
 21
202.9999999999999
 31
0.0
  0
CIRCLE
  5
AD
330
2
100
AcDbEntity
  8
L-ZISSEN
100
AcDbCircle
 10
376.0
 20
202.9999999999999
 30
0.0
 40
2.1
  0
LINE
  5
AE
330
2
100
AcDbEntity
  8
L-ZISSEN
100
AcDbLine
 10
364.5
 20
242.0
 30
0.0
 11
391.9999999999995
 21
242.0000000000001
 31
0.0
  0
LINE
  5
AF
330
2
100
AcDbEntity
  8
L-ZISSEN
100
AcDbLine
 10
349.0
 20
237.5000000000001
 30
0.0
 11
348.9999999999999
 21
230.0000000000002
 31
0.0
  0
LINE
  5
B0
330
2
100
AcDbEntity
  8
L-ZISSEN
100
AcDbLine
 10
359.0
 20
237.5000000000003
 30
0.0
 11
359.0
 21
230.0000000000001
 31
0.0
  0
LINE
  5
B1
330
2
100
AcDbEntity
  8
L-ZISSEN
100
AcDbLine
 10
357.7999999999995
 20
239.5000000000001
 30
0.0
 11
360.5
 21
239.5000000000001
 31
0.0
  0
LINE
  5
B2
330
2
100
AcDbEntity
  8
L-ZISSEN
100
AcDbLine
 10
350.0000000000001
 20
237.5000000000002
 30
0.0
 11
350.0000000000001
 21
238.0000000000001
 31
0.0
  0
LINE
  5
B3
330
2
100
AcDbEntity
  8
L-ZISSEN
100
AcDbLine
 10
349.0
 20
237.5000000000001
 30
0.0
 11
359.0
 21
237.5000000000003
 31
0.0
  0
LINE
  5
B4
330
2
100
AcDbEntity
  8
L-ZISSEN
100
AcDbLine
 10
393.0
 20
237.5000000000003
 30
0.0
 11
393.0
 21
230.0000000000001
 31
0.0
  0
SOLID
  5
B5
330
2
100
AcDbEntity
  8
L-ZISSEN
100
AcDbTrace
 10
377.8166648728794
 20
238.9004664628718
 30
0.0
 11
377.4264235944952
 21
239.4409812074342
 31
0.0
 12
375.9999999999999
 22
238.0000000000001
 32
0.0
 13
375.9999999999999
 23
238.0000000000001
 33
0.0
  0
LINE
  5
B6
330
2
100
AcDbEntity
  8
L-ZISSEN
100
AcDbLine
 10
385.4999999999995
 20
242.0000000000001
 30
0.0
 11
385.4999999999994
 21
238.0000000000001
 31
0.0
  0
LINE
  5
B7
330
2
100
AcDbEntity
  8
L-ZISSEN
100
AcDbLine
 10
363.5499999999997
 20
273.1999999999999
 30
0.0
 11
348.0499999999997
 21
273.2
 31
0.0
  0
LINE
  5
B8
330
2
100
AcDbEntity
  8
L-ZISSEN
100
AcDbLine
 10
363.5499999999997
 20
250.8
 30
0.0
 11
348.0499999999997
 21
250.8
 31
0.0
  0
LINE
  5
B9
330
2
100
AcDbEntity
  8
L-ZISSEN
100
AcDbLine
 10
312.4000000000001
 20
246.0000000000001
 30
0.0
 11
357.7999999999995
 21
246.0
 31
0.0
  0
LINE
  5
BA
330
2
100
AcDbEntity
  8
L-ZISSEN
100
AcDbLine
 10
312.4000000000001
 20
278.0000000000002
 30
0.0
 11
357.7999999999995
 21
278.0
 31
0.0
  0
LINE
  5
BB
330
2
100
AcDbEntity
  8
L-ZISSEN
100
AcDbLine
 10
348.05
 20
248.25
 30
0.0
 11
348.05
 21
275.75
 31
0.0
  0
LINE
  5
BC
330
2
100
AcDbEntity
  8
L-ZISSEN
100
AcDbLine
 10
305.4999999999995
 20
271.8149505701109
 30
0.0
 11
305.4999999999994
 21
252.1850414176637
 31
0.0
  0
LINE
  5
BD
330
2
100
AcDbEntity
  8
L-ZISSEN
100
AcDbLine
 10
320.5499999999997
 20
248.25
 30
0.0
 11
320.5499999999997
 21
275.7499999999999
 31
0.0
  0
LINE
  5
BE
330
2
100
AcDbEntity
  8
L-ZISSEN
100
AcDbLine
 10
312.4000000000001
 20
278.0000000000002
 30
0.0
 11
312.4000000000001
 21
246.0000000000001
 31
0.0
  0
LINE
  5
BF
330
2
100
AcDbEntity
  8
L-ZISSEN
100
AcDbLine
 10
318.2999999999997
 20
246.0000000000001
 30
0.0
 11
318.2999999999997
 21
278.0000000000002
 31
0.0
  0
LINE
  5
C0
330
2
100
AcDbEntity
  8
L-ZISSEN
100
AcDbLine
 10
348.05
 20
248.25
 30
0.0
 11
320.5499999999997
 21
248.25
 31
0.0
  0
LINE
  5
C1
330
2
100
AcDbEntity
  8
L-ZISSEN
100
AcDbLine
 10
305.4999999999994
 20
252.1850414176637
 30
0.0
 11
312.3999999999994
 21
252.1850414176636
 31
0.0
  0
CIRCLE
  5
C2
330
2
100
AcDbEntity
  8
L-ZISSEN
100
AcDbCircle
 10
334.2999999999997
 20
262.0
 30
0.0
 40
3.25
  0
LINE
  5
C3
330
2
100
AcDbEntity
  8
L-ZISSEN
100
AcDbLine
 10
348.05
 20
275.75
 30
0.0
 11
320.5499999999997
 21
275.7499999999999
 31
0.0
  0
LINE
  5
C4
330
2
100
AcDbEntity
  8
L-ZISSEN
100
AcDbLine
 10
305.4999999999995
 20
271.8149505701109
 30
0.0
 11
312.3999999999996
 21
271.8149505701109
 31
0.0
  0
LINE
  5
C5
330
2
100
AcDbEntity
  8
L-ZISSEN
100
AcDbLine
 10
363.5499999999997
 20
250.8
 30
0.0
 11
363.5499999999997
 21
273.1999999999999
 31
0.0
  0
LINE
  5
C6
330
2
100
AcDbEntity
  8
L-ZISSEN
100
AcDbLine
 10
373.2999999999998
 20
252.5000000000001
 30
0.0
 11
373.3
 21
271.5000000000001
 31
0.0
  0
LINE
  5
C7
330
2
100
AcDbEntity
  8
L-ZISSEN
100
AcDbLine
 10
368.2999999999998
 20
252.5000000000001
 30
0.0
 11
368.2999999999996
 21
271.5
 31
0.0
  0
LINE
  5
C8
330
2
100
AcDbEntity
  8
L-ZISSEN
100
AcDbLine
 10
373.2999999999998
 20
252.5000000000001
 30
0.0
 11
368.2999999999996
 21
252.5000000000001
 31
0.0
  0
LINE
  5
C9
330
2
100
AcDbEntity
  8
L-ZISSEN
100
AcDbLine
 10
368.2999999999998
 20
252.85
 30
0.0
 11
363.5499999999997
 21
252.85
 31
0.0
  0
LINE
  5
CA
330
2
100
AcDbEntity
  8
L-ZISSEN
100
AcDbLine
 10
377.5000000000001
 20
245.6000000000001
 30
0.0
 11
384.5000000000002
 21
245.6000000000001
 31
0.0
  0
LINE
  5
CB
330
2
100
AcDbEntity
  8
L-ZISSEN
  6
Continuous
100
AcDbLine
 10
377.7999999999997
 20
286.4999999999999
 30
0.0
 11
369.7999999999997
 21
286.4999999999999
 31
0.0
  0
LINE
  5
CC
330
2
100
AcDbEntity
  8
L-ZISSEN
100
AcDbLine
 10
373.3
 20
271.5000000000001
 30
0.0
 11
368.2999999999996
 21
271.5
 31
0.0
  0
LINE
  5
CD
330
2
100
AcDbEntity
  8
L-ZISSEN
100
AcDbLine
 10
360.5
 20
286.0000000000001
 30
0.0
 11
381.5
 21
286.0000000000001
 31
0.0
  0
LINE
  5
CE
330
2
100
AcDbEntity
  8
L-ZISSEN
100
AcDbLine
 10
357.7999999999995
 20
273.2
 30
0.0
 11
357.7999999999995
 21
284.5000000000001
 31
0.0
  0
LINE
  5
CF
330
2
100
AcDbEntity
  8
L-ZISSEN
100
AcDbLine
 10
364.4999999999995
 20
286.0000000000001
 30
0.0
 11
364.4999999999998
 21
271.1500000000001
 31
0.0
  0
LINE
  5
D0
330
2
100
AcDbEntity
  8
L-ZISSEN
100
AcDbLine
 10
360.5
 20
286.0000000000001
 30
0.0
 11
360.5
 21
273.2
 31
0.0
  0
LINE
  5
D1
330
2
100
AcDbEntity
  8
L-ZISSEN
100
AcDbLine
 10
368.2999999999996
 20
271.1500000000001
 30
0.0
 11
363.5499999999997
 21
271.1500000000001
 31
0.0
  0
LINE
  5
D2
330
2
100
AcDbEntity
  8
L-ZISSEN
100
AcDbLine
 10
357.7999999999995
 20
284.5000000000001
 30
0.0
 11
360.5
 21
284.5000000000001
 31
0.0
  0
LINE
  5
D3
330
2
100
AcDbEntity
  8
L-ZISSEN
100
AcDbLine
 10
369.7999999999997
 20
285.9999999999999
 30
0.0
 11
369.7999999999997
 21
286.4999999999999
 31
0.0
  0
LINE
  5
D4
330
2
100
AcDbEntity
  8
L-ZISSEN
100
AcDbLine
 10
381.5
 20
286.0000000000001
 30
0.0
 11
381.5
 21
267.4869070392155
 31
0.0
  0
LINE
  5
D5
330
2
100
AcDbEntity
  8
L-ZISSEN
100
AcDbLine
 10
381.5
 20
267.4869070392155
 30
0.0
 11
391.9999999999995
 21
267.4869070392155
 31
0.0
  0
LINE
  5
D6
330
2
100
AcDbEntity
  8
L-ZISSEN
100
AcDbLine
 10
377.7999999999997
 20
285.9999999999999
 30
0.0
 11
377.7999999999997
 21
286.4999999999999
 31
0.0
  0
LINE
  5
D7
330
2
100
AcDbEntity
  8
L-ZISSEN
100
AcDbLine
 10
409.0
 20
130.4999999999999
 30
0.0
 11
409.0
 21
203.2540333075853
 31
0.0
  0
LINE
  5
D8
330
2
100
AcDbEntity
  8
L-ZISSEN
100
AcDbLine
 10
424.5000000000002
 20
191.0
 30
0.0
 11
424.5000000000001
 21
201.0
 31
0.0
  0
LINE
  5
D9
330
2
100
AcDbEntity
  8
L-ZISSEN
100
AcDbLine
 10
417.0000000000001
 20
202.0
 30
0.0
 11
417.0000000000001
 21
146.0
 31
0.0
  0
LINE
  5
DA
330
2
100
AcDbEntity
  8
L-ZISSEN
100
AcDbLine
 10
404.0
 20
146.0
 30
0.0
 11
404.0
 21
203.583801512904
 31
0.0
  0
LINE
  5
DB
102
{ACAD_REACTORS
330
342
102
}
330
2
100
AcDbEntity
  8
L-ZISSEN
100
AcDbLine
 10
446.0
 20
219.9999999999998
 30
0.0
 11
446.0
 21
195.9999999999998
 31
0.0
  0
LINE
  5
DC
330
2
100
AcDbEntity
  8
L-ZISSEN
100
AcDbLine
 10
432.0
 20
196.5
 30
0.0
 11
432.0
 21
151.5
 31
0.0
  0
LINE
  5
DD
330
2
100
AcDbEntity
  8
L-ZISSEN
100
AcDbLine
 10
424.5000000000002
 20
157.0
 30
0.0
 11
424.5000000000001
 21
147.0
 31
0.0
  0
TEXT
  5
DE
330
2
100
AcDbEntity
  8
L-ZISSEN
100
AcDbText
 10
451.0
 20
149.0
 30
0.0
 40
4.5
  1
Rc 1/2
100
AcDbText
  0
LINE
  5
DF
330
2
100
AcDbEntity
  8
L-ZISSEN
100
AcDbLine
 10
395.7500000000001
 20
130.4999999999999
 30
0.0
 11
395.7500000000001
 21
127.4999999999999
 31
0.0
  0
LINE
  5
E0
330
2
100
AcDbEntity
  8
L-ZISSEN
100
AcDbLine
 10
407.0
 20
123.4999999999999
 30
0.0
 11
407.0
 21
130.4999999999999
 31
0.0
  0
LINE
  5
E1
330
2
100
AcDbEntity
  8
L-ZISSEN
100
AcDbLine
 10
397.0
 20
123.4999999999999
 30
0.0
 11
397.0
 21
130.4999999999999
 31
0.0
  0
LINE
  5
E2
330
2
100
AcDbEntity
  8
L-ZISSEN
100
AcDbLine
 10
407.0
 20
123.4999999999999
 30
0.0
 11
397.0
 21
123.4999999999999
 31
0.0
  0
LINE
  5
E3
330
2
100
AcDbEntity
  8
L-ZISSEN
100
AcDbLine
 10
417.0
 20
146.0
 30
0.0
 11
404.0
 21
146.0
 31
0.0
  0
LINE
  5
E4
330
2
100
AcDbEntity
  8
L-ZISSEN
100
AcDbLine
 10
432.0
 20
151.5
 30
0.0
 11
424.5000000000001
 21
151.5
 31
0.0
  0
LINE
  5
E5
330
2
100
AcDbEntity
  8
L-ZISSEN
100
AcDbLine
 10
424.5000000000001
 20
147.0
 30
0.0
 11
417.0000000000001
 21
147.0
 31
0.0
  0
TEXT
  5
E6
330
2
100
AcDbEntity
  8
L-ZISSEN
100
AcDbText
 10
451.0
 20
129.0
 30
0.0
 40
4.5
  1
Rc 1
100
AcDbText
  0
TEXT
  5
E7
330
2
100
AcDbEntity
  8
L-ZISSEN
100
AcDbText
 10
451.0
 20
119.0
 30
0.0
 40
4.5
  1
Rc 1-1/4
100
AcDbText
  0
TEXT
  5
E8
330
2
100
AcDbEntity
  8
L-ZISSEN
100
AcDbText
 10
451.0
 20
139.0
 30
0.0
 40
4.5
  1
Rc 3/4
100
AcDbText
  0
LINE
  5
E9
330
2
100
AcDbEntity
  8
L-ZISSEN
100
AcDbLine
 10
433.3646365007199
 20
172.5378894635143
 30
0.0
 11
446.0
 21
159.0
 31
0.0
  0
LINE
  5
EA
330
2
100
AcDbEntity
  8
L-ZISSEN
100
AcDbLine
 10
446.0
 20
195.9999999999998
 30
0.0
 11
432.0
 21
196.0
 31
0.0
  0
LINE
  5
EB
330
2
100
AcDbEntity
  8
L-ZISSEN
100
AcDbLine
 10
424.5000000000002
 20
157.0
 30
0.0
 11
417.0000000000001
 21
157.0
 31
0.0
  0
SOLID
  5
EC
330
2
100
AcDbEntity
  8
L-ZISSEN
100
AcDbTrace
 10
433.1209514113057
 20
172.3104500467276
 30
0.0
 11
433.6083215901342
 21
172.7653288803009
 31
0.0
 12
432.0
 22
174.0
 32
0.0
 13
432.0
 23
174.0
 33
0.0
  0
LINE
  5
ED
330
2
100
AcDbEntity
  8
L-ZISSEN
100
AcDbLine
 10
432.0
 20
196.5
 30
0.0
 11
424.5000000000001
 21
196.5
 31
0.0
  0
LINE
  5
EE
330
2
100
AcDbEntity
  8
L-ZISSEN
100
AcDbLine
 10
424.5000000000002
 20
191.0
 30
0.0
 11
417.0000000000001
 21
191.0000000000001
 31
0.0
  0
LINE
  5
EF
330
2
100
AcDbEntity
  8
L-ZISSEN
100
AcDbLine
 10
446.0
 20
159.0
 30
0.0
 11
448.0
 21
159.0
 31
0.0
  0
TEXT
  5
F0
330
2
100
AcDbEntity
  8
L-ZISSEN
100
AcDbText
 10
450.0
 20
156.75
 30
0.0
 40
4.5
  1
IN
100
AcDbText
  0
ARC
  5
F1
330
2
100
AcDbEntity
  8
L-ZISSEN
100
AcDbCircle
 10
437.0
 20
207.9999999999999
 30
0.0
 40
4.5
100
AcDbArc
 50
270.0000209698218
 51
89.99999999999964
  0
LINE
  5
F2
330
2
100
AcDbEntity
  8
L-TYUSIN
100
AcDbLine
 10
423.5
 20
208.0
 30
0.0
 11
441.4999999999999
 21
208.0000008234829
 31
0.0
  0
LINE
  5
F3
330
2
100
AcDbEntity
  8
L-ZISSEN
100
AcDbLine
 10
425.4999999999999
 20
236.0000000000001
 30
0.0
 11
425.4999999999999
 21
220.0000000000001
 31
0.0
  0
LINE
  5
F4
330
2
100
AcDbEntity
  8
L-ZISSEN
100
AcDbLine
 10
407.4999999999999
 20
219.9999999999999
 30
0.0
 11
407.4999999999999
 21
230.0000000000001
 31
0.0
  0
LINE
  5
F5
330
2
100
AcDbEntity
  8
L-ZISSEN
100
AcDbLine
 10
417.0000000000001
 20
202.0
 30
0.0
 11
409.0
 21
202.0
 31
0.0
  0
LINE
  5
F6
330
2
100
AcDbEntity
  8
L-ZISSEN
100
AcDbLine
 10
414.9999999999999
 20
202.0
 30
0.0
 11
414.9999999999999
 21
219.9999999999999
 31
0.0
  0
ARC
  5
F7
330
2
100
AcDbEntity
  8
L-ZISSEN
100
AcDbCircle
 10
407.0
 20
210.9999999999999
 30
0.0
 40
8.0
100
AcDbArc
 50
284.4775121859303
 51
247.9756871629586
  0
CIRCLE
  5
F8
330
2
100
AcDbEntity
  8
L-ZISSEN
100
AcDbCircle
 10
407.0
 20
210.9999999999999
 30
0.0
 40
3.375
  0
LINE
  5
F9
330
2
100
AcDbEntity
  8
L-ZISSEN
100
AcDbLine
 10
414.9999999999999
 20
214.9999999999999
 30
0.0
 11
413.9282032302754
 21
214.9999999999999
 31
0.0
  0
ARC
  5
FA
330
2
100
AcDbEntity
  8
L-ZISSEN
100
AcDbCircle
 10
428.0
 20
208.0
 30
0.0
 40
4.5
100
AcDbArc
 50
90.0
 51
270.0000138175801
  0
LINE
  5
FB
330
2
100
AcDbEntity
  8
L-ZISSEN
100
AcDbLine
 10
418.2
 20
220.0
 30
0.0
 11
418.2
 21
201.0000000000001
 31
0.0
  0
LINE
  5
FC
102
{ACAD_REACTORS
330
333
102
}
330
2
100
AcDbEntity
  8
L-TYUSIN
100
AcDbLine
 10
432.5
 20
212.5
 30
0.0
 11
432.5000013660981
 21
203.4999999999999
 31
0.0
  0
LINE
  5
FD
330
2
100
AcDbEntity
  8
L-ZISSEN
100
AcDbLine
 10
424.5000000000001
 20
201.0
 30
0.0
 11
417.0000000000001
 21
201.0
 31
0.0
  0
LINE
  5
FE
330
2
100
AcDbEntity
  8
L-ZISSEN
100
AcDbLine
 10
437.000001646966
 20
203.4999999999999
 30
0.0
 11
428.0000010852302
 21
203.4999999999999
 31
0.0
  0
LINE
  5
FF
330
2
100
AcDbEntity
  8
L-ZISSEN
100
AcDbLine
 10
437.0
 20
212.4999999999999
 30
0.0
 11
428.0
 21
212.5
 31
0.0
  0
LINE
  5
100
330
2
100
AcDbEntity
  8
L-ZISSEN
100
AcDbLine
 10
425.4999999999999
 20
236.0000000000001
 30
0.0
 11
403.0000000000001
 21
236.0000000000001
 31
0.0
  0
LINE
  5
101
330
2
100
AcDbEntity
  8
L-ZISSEN
100
AcDbLine
 10
403.0
 20
237.5000000000001
 30
0.0
 11
403.0
 21
230.0000000000001
 31
0.0
  0
LINE
  5
102
330
2
100
AcDbEntity
  8
L-ZISSEN
100
AcDbLine
 10
401.9999999999997
 20
238.0
 30
0.0
 11
401.9999999999998
 21
237.5000000000002
 31
0.0
  0
LINE
  5
103
330
2
100
AcDbEntity
  8
L-TYUSIN
100
AcDbLine
 10
421.9999999999999
 20
228.0000000000001
 30
0.0
 11
428.9999999999999
 21
228.0000000000001
 31
0.0
  0
TEXT
  5
104
330
2
100
AcDbEntity
  8
L-ZISSEN
100
AcDbText
 10
416.2759980241194
 20
264.7703953087039
 30
0.0
 40
4.6
  1
-P.P
100
AcDbText
  0
LINE
  5
105
330
2
100
AcDbEntity
  8
L-ZISSEN
100
AcDbLine
 10
557.246226926185
 20
245.9999999999999
 30
5.0
 11
557.246226926185
 21
277.9999999999998
 31
5.0
  0
TEXT
  5
106
330
2
100
AcDbEntity
  8
L-ZISSEN
100
AcDbText
 10
208.3740397896854
 20
483.0481821781157
 30
0.0
 40
4.6
  1
-P.P
100
AcDbText
  0
LINE
  5
107
330
2
100
AcDbEntity
  8
L-ZISSEN
100
AcDbLine
 10
152.4393042626753
 20
431.3886678411664
 30
0.0
 11
208.3711982522409
 21
485.3527484497622
 31
0.0
  0
LINE
  5
108
330
2
100
AcDbEntity
  8
L-TYUSIN
100
AcDbLine
 10
151.0
 20
489.5000000000003
 30
0.0
 11
150.9999959938872
 21
348.5000000000006
 31
0.0
  0
LINE
  5
109
330
2
100
AcDbEntity
  8
L-ZISSEN
100
AcDbLine
 10
158.9999999999999
 20
479.5000000000004
 30
0.0
 11
158.9999999999999
 21
456.0000000000004
 31
0.0
  0
LINE
  5
10A
330
2
100
AcDbEntity
  8
L-ZISSEN
100
AcDbLine
 10
142.9999999999999
 20
479.5000000000003
 30
0.0
 11
142.9999999999999
 21
456.0000000000003
 31
0.0
  0
LINE
  5
10B
330
2
100
AcDbEntity
  8
L-ZISSEN
100
AcDbLine
 10
114.7999999999998
 20
390.0000000000005
 30
0.0
 11
114.8
 21
470.0000000000003
 31
0.0
  0
LINE
  5
10C
330
2
100
AcDbEntity
  8
L-ZISSEN
100
AcDbLine
 10
117.9999999999999
 20
386.8000000000005
 30
0.0
 11
117.9999999999999
 21
473.2000000000004
 31
0.0
  0
LINE
  5
10D
330
2
100
AcDbEntity
  8
L-ZISSEN
100
AcDbLine
 10
133.9999999999999
 20
461.5000000000003
 30
0.0
 11
133.9999999999999
 21
469.0000000000002
 31
0.0
  0
LINE
  5
10E
330
2
100
AcDbEntity
  8
L-ZISSEN
100
AcDbLine
 10
133.9999999999999
 20
469.0000000000001
 30
0.0
 11
135.9999999999999
 21
465.5358983848624
 31
0.0
  0
LINE
  5
10F
330
2
100
AcDbEntity
  8
L-ZISSEN
100
AcDbLine
 10
168.0000000000004
 20
461.5000000000003
 30
0.0
 11
168.0000000000004
 21
469.0000000000001
 31
0.0
  0
LINE
  5
110
330
2
100
AcDbEntity
  8
L-ZISSEN
100
AcDbLine
 10
184.0000000000004
 20
453.0000000000003
 30
0.0
 11
184.0000000000004
 21
471.0000000000005
 31
0.0
  0
LINE
  5
111
330
2
100
AcDbEntity
  8
L-ZISSEN
100
AcDbLine
 10
168.0000000000004
 20
469.0000000000001
 30
0.0
 11
166.0000000000004
 21
465.5358983848623
 31
0.0
  0
LINE
  5
112
330
2
100
AcDbEntity
  8
L-ZISSEN
100
AcDbLine
 10
212.2000000000003
 20
417.5500000000002
 30
0.0
 11
212.2000000000003
 21
374.5500000000002
 31
0.0
  0
LINE
  5
113
330
2
100
AcDbEntity
  8
L-ZISSEN
100
AcDbLine
 10
104.1999999999999
 20
360.0000000000004
 30
0.0
 11
104.2
 21
386.8000000000004
 31
0.0
  0
LINE
  5
114
102
{ACAD_REACTORS
330
376
102
}
330
2
100
AcDbEntity
  8
L-ZISSEN
100
AcDbLine
 10
100.9999999999999
 20
360.0000000000004
 30
0.0
 11
100.9999999999999
 21
390.0000000000004
 31
0.0
  0
LINE
  5
115
330
2
100
AcDbEntity
  8
L-ZISSEN
100
AcDbLine
 10
129.5
 20
366.4000000000004
 30
0.0
 11
129.5
 21
411.8000000000006
 31
0.0
  0
LINE
  5
116
330
2
100
AcDbEntity
  8
L-ZISSEN
100
AcDbLine
 10
128.5000000000001
 20
376.0000000000004
 30
0.0
 11
128.5000000000001
 21
381.5000000000004
 31
0.0
  0
LINE
  5
117
330
2
100
AcDbEntity
  8
L-ZISSEN
100
AcDbLine
 10
180.5000000000003
 20
372.3000000000002
 30
0.0
 11
180.5000000000003
 21
404.3000000000003
 31
0.0
  0
LINE
  5
118
330
2
100
AcDbEntity
  8
L-ZISSEN
100
AcDbLine
 10
104.2
 20
360.0000000000004
 30
0.0
 11
100.9999999999999
 21
360.0000000000004
 31
0.0
  0
LINE
  5
119
102
{ACAD_REACTORS
330
367
330
385
102
}
330
2
100
AcDbEntity
  8
L-TYUSIN
100
AcDbLine
 10
107.7
 20
373.5000000000004
 30
0.0
 11
97.49999999999989
 21
373.5000000000004
 31
0.0
  0
LINE
  5
11A
330
2
100
AcDbEntity
  8
L-ZISSEN
100
AcDbLine
 10
172.5000000000003
 20
366.4000000000007
 30
0.0
 11
129.5
 21
366.4000000000004
 31
0.0
  0
ARC
  5
11B
330
2
100
AcDbEntity
  8
L-ZISSEN
100
AcDbCircle
 10
150.9999959938872
 20
359.5000000000006
 30
0.0
 40
7.5
100
AcDbArc
 50
194.8351115819391
 51
345.1648884180607
  0
LWPOLYLINE
  5
11C
330
2
100
AcDbEntity
  8
L-ZISSEN
100
AcDbPolyline
 90
       16
 70
     1
 43
0.0
 10
151.0000000000001
 20
356.8734194131131
 42
0.0856122882297115
 10
150.5133211941432
 20
356.7894727567212
 42
0.0921918547215019
 10
150.1161165235169
 20
356.5591490692725
 42
0.1033313498878916
 10
149.8419638499829
 20
356.2026213227159
 42
0.11287284724791
 10
149.7500000000001
 20
355.8004333429209
 42
0.1128728472479042
 10
149.8419638499828
 20
355.3982453631261
 42
0.1033313498879965
 10
150.1161165235169
 20
355.0417176165693
 42
0.0921918547216899
 10
150.5133211941435
 20
354.8113939291205
 42
0.0856122882297706
 10
151.0000000000001
 20
354.7274472727287
 42
0.0856122882297608
 10
151.4866788058568
 20
354.8113939291205
 42
0.0921918547216584
 10
151.8838834764832
 20
355.0417176165693
 42
0.1033313498880746
 10
152.1580361500174
 20
355.3982453631262
 42
0.1128728472479353
 10
152.2500000000001
 20
355.8004333429209
 42
0.112872847247978
 10
152.1580361500172
 20
356.2026213227159
 42
0.103331349887942
 10
151.8838834764832
 20
356.5591490692725
 42
0.0921918547216133
 10
151.4866788058567
 20
356.7894727567214
 42
0.0856122882296662
  0
LINE
  5
11D
330
2
100
AcDbEntity
  8
L-ZISSEN
100
AcDbLine
 10
159.5
 20
359.5000000000005
 30
0.0
 11
142.5
 21
359.5000000000005
 31
0.0
  0
LINE
  5
11E
330
2
100
AcDbEntity
  8
L-ZISSEN
100
AcDbLine
 10
142.5
 20
359.5000000000005
 30
0.0
 11
142.5
 21
366.4000000000003
 31
0.0
  0
LINE
  5
11F
330
2
100
AcDbEntity
  8
L-ZISSEN
100
AcDbLine
 10
143.7499959938871
 20
357.5797135630382
 30
0.0
 11
143.7499959938871
 21
359.5000000000005
 31
0.0
  0
ARC
  5
120
330
2
100
AcDbEntity
  8
L-ZISSEN
100
AcDbCircle
 10
130.5000000000001
 20
376.0000000000003
 30
0.0
 40
2.0
100
AcDbArc
 50
180.0
 51
239.9999999999678
  0
LINE
  5
121
330
2
100
AcDbEntity
  8
L-ZISSEN
100
AcDbLine
 10
158.2499959938871
 20
357.5797135630382
 30
0.0
 11
158.2499959938871
 21
359.0000000000005
 31
0.0
  0
LINE
  5
122
330
2
100
AcDbEntity
  8
L-ZISSEN
100
AcDbLine
 10
159.5
 20
359.5000000000005
 30
0.0
 11
159.5
 21
366.4000000000005
 31
0.0
  0
LINE
  5
123
330
2
100
AcDbEntity
  8
L-ZISSEN
100
AcDbLine
 10
212.2000000000003
 20
374.5500000000002
 30
0.0
 11
180.5000000000003
 21
374.5500000000002
 31
0.0
  0
LINE
  5
124
330
2
100
AcDbEntity
  8
L-ZISSEN
100
AcDbLine
 10
172.5000000000003
 20
372.3000000000002
 30
0.0
 11
172.5000000000003
 21
366.4000000000007
 31
0.0
  0
LINE
  5
125
330
2
100
AcDbEntity
  8
L-ZISSEN
100
AcDbLine
 10
172.5000000000003
 20
372.3000000000002
 30
0.0
 11
180.5000000000003
 21
372.3000000000002
 31
0.0
  0
LINE
  5
126
330
2
100
AcDbEntity
  8
L-ZISSEN
100
AcDbLine
 10
135.3000000000002
 20
445.7000000000004
 30
0.0
 11
122.4999999999999
 21
445.7000000000003
 31
0.0
  0
CIRCLE
  5
127
330
2
100
AcDbEntity
  8
L-ZISSEN
100
AcDbCircle
 10
129.0
 20
452.0000000000003
 30
0.0
 40
5.0
  0
LINE
  5
128
330
2
100
AcDbEntity
  8
L-ZISSEN
100
AcDbLine
 10
142.9999999999999
 20
461.5000000000003
 30
0.0
 11
119.4999999999999
 21
461.5000000000003
 31
0.0
  0
LINE
  5
129
330
2
100
AcDbEntity
  8
L-ZISSEN
100
AcDbLine
 10
135.1000000000003
 20
414.3000000000005
 30
0.0
 11
122.4999999999999
 21
414.3000000000004
 31
0.0
  0
ARC
  5
12A
330
2
100
AcDbEntity
  8
L-ZISSEN
100
AcDbCircle
 10
129.0
 20
408.0000000000003
 30
0.0
 40
5.0
100
AcDbArc
 50
49.46419788868656
 51
275.7391704772659
  0
LINE
  5
12B
330
2
100
AcDbEntity
  8
L-ZISSEN
100
AcDbLine
 10
117.9999999999999
 20
391.0000000000005
 30
0.0
 11
129.4999999999998
 21
391.0000000000003
 31
0.0
  0
LINE
  5
12C
330
2
100
AcDbEntity
  8
L-ZISSEN
100
AcDbLine
 10
129.4999999999999
 20
398.5000000000004
 30
0.0
 11
119.4999999999999
 21
398.5000000000004
 31
0.0
  0
LINE
  5
12D
330
2
100
AcDbEntity
  8
L-ZISSEN
100
AcDbLine
 10
117.9999999999999
 20
389.0000000000004
 30
0.0
 11
129.4999999999998
 21
389.0000000000004
 31
0.0
  0
LINE
  5
12E
330
2
100
AcDbEntity
  8
L-ZISSEN
100
AcDbLine
 10
119.9999999999999
 20
381.5000000000003
 30
0.0
 11
129.3071796769722
 21
381.5000000000004
 31
0.0
  0
LINE
  5
12F
330
2
100
AcDbEntity
  8
L-TYUSIN
100
AcDbLine
 10
109.7999999999999
 20
430.0000000000005
 30
0.0
 11
187.5000000000003
 21
430.0000000000004
 31
0.0
  0
LINE
  5
130
330
2
100
AcDbEntity
  8
L-ZISSEN
100
AcDbLine
 10
122.4999999999999
 20
445.7000000000003
 30
0.0
 11
122.4999999999999
 21
414.3000000000004
 31
0.0
  0
LINE
  5
131
330
2
100
AcDbEntity
  8
L-ZISSEN
100
AcDbLine
 10
119.4999999999999
 20
461.5000000000004
 30
0.0
 11
119.4999999999999
 21
398.5000000000004
 31
0.0
  0
LINE
  5
132
330
2
100
AcDbEntity
  8
L-ZISSEN
100
AcDbLine
 10
104.7999999999999
 20
405.5000000000004
 30
0.0
 11
104.8
 21
392.5000000000003
 31
0.0
  0
LINE
  5
133
330
2
100
AcDbEntity
  8
L-ZISSEN
100
AcDbLine
 10
114.7999999999998
 20
390.0000000000005
 30
0.0
 11
100.9999999999999
 21
390.0000000000004
 31
0.0
  0
LINE
  5
134
330
2
100
AcDbEntity
  8
L-ZISSEN
100
AcDbLine
 10
117.9999999999999
 20
386.8000000000005
 30
0.0
 11
104.2
 21
386.8000000000004
 31
0.0
  0
LINE
  5
135
330
2
100
AcDbEntity
  8
L-ZISSEN
100
AcDbLine
 10
119.9999999999999
 20
381.5000000000003
 30
0.0
 11
120.0
 21
389.0000000000004
 31
0.0
  0
LINE
  5
136
330
2
100
AcDbEntity
  8
L-ZISSEN
100
AcDbLine
 10
114.7999999999998
 20
392.5000000000004
 30
0.0
 11
104.8
 21
392.5000000000003
 31
0.0
  0
LINE
  5
137
330
2
100
AcDbEntity
  8
L-ZISSEN
100
AcDbLine
 10
114.7999999999999
 20
405.5000000000004
 30
0.0
 11
104.7999999999999
 21
405.5000000000004
 31
0.0
  0
LINE
  5
138
330
2
100
AcDbEntity
  8
L-ZISSEN
100
AcDbLine
 10
104.8
 20
454.5000000000005
 30
0.0
 11
104.8
 21
467.5000000000005
 31
0.0
  0
LINE
  5
139
330
2
100
AcDbEntity
  8
L-ZISSEN
100
AcDbLine
 10
114.8
 20
454.5000000000003
 30
0.0
 11
104.8
 21
454.5000000000005
 31
0.0
  0
LINE
  5
13A
330
2
100
AcDbEntity
  8
L-ZISSEN
100
AcDbLine
 10
114.8
 20
467.5000000000005
 30
0.0
 11
104.8
 21
467.5000000000005
 31
0.0
  0
LINE
  5
13B
330
2
100
AcDbEntity
  8
L-ZISSEN
100
AcDbLine
 10
211.9696551146031
 20
427.3000000000002
 30
0.0
 11
211.9696551146031
 21
422.3000000000003
 31
0.0
  0
LINE
  5
13C
330
2
100
AcDbEntity
  8
L-ZISSEN
100
AcDbLine
 10
137.9999999999999
 20
430.5
 30
0.0
 11
138.0000000000011
 21
418.5000000000003
 31
0.0
  0
LINE
  5
13D
330
2
100
AcDbEntity
  8
L-ZISSEN
100
AcDbLine
 10
136.5000000000001
 20
418.5000000000002
 30
0.0
 11
136.5000000000001
 21
439.4999999999999
 31
0.0
  0
LINE
  5
13E
330
2
100
AcDbEntity
  8
L-ZISSEN
100
AcDbLine
 10
164.9476281568617
 20
430.5
 30
0.0
 11
164.9476281568621
 21
418.5000000000003
 31
0.0
  0
LINE
  5
13F
330
2
100
AcDbEntity
  8
L-ZISSEN
100
AcDbLine
 10
165.5000000000001
 20
418.5000000000002
 30
0.0
 11
165.5000000000001
 21
439.4999999999994
 31
0.0
  0
LINE
  5
140
330
2
100
AcDbEntity
  8
L-ZISSEN
100
AcDbLine
 10
158.0000000000001
 20
427.8000000000003
 30
0.0
 11
158.0000000000001
 21
418.5
 31
0.0
  0
LINE
  5
141
330
2
100
AcDbEntity
  8
L-ZISSEN
100
AcDbLine
 10
144.0000000000001
 20
427.8000000000003
 30
0.0
 11
144.0000000000001
 21
418.5000000000009
 31
0.0
  0
LINE
  5
142
330
2
100
AcDbEntity
  8
L-ZISSEN
100
AcDbLine
 10
174.4999999999999
 20
443.7150739291168
 30
0.0
 11
174.4999999999999
 21
414.3000000000004
 31
0.0
  0
LINE
  5
143
330
2
100
AcDbEntity
  8
L-ZISSEN
100
AcDbLine
 10
182.4999999999999
 20
461.5000000000003
 30
0.0
 11
182.4999999999999
 21
402.0500000000004
 31
0.0
  0
LINE
  5
144
330
2
100
AcDbEntity
  8
L-ZISSEN
100
AcDbLine
 10
190.0303448853973
 20
427.3000000000003
 30
0.0
 11
190.0303448853973
 21
422.3000000000003
 31
0.0
  0
LINE
  5
145
330
2
100
AcDbEntity
  8
L-ZISSEN
100
AcDbLine
 10
174.4999999999999
 20
414.3000000000004
 30
0.0
 11
166.8999999999999
 21
414.3000000000005
 31
0.0
  0
ARC
  5
146
330
2
100
AcDbEntity
  8
L-ZISSEN
100
AcDbCircle
 10
172.9999999999999
 20
408.0000000000003
 30
0.0
 40
5.0
100
AcDbArc
 50
312.2685844295727
 51
130.5358021113146
  0
LINE
  5
147
330
2
100
AcDbEntity
  8
L-ZISSEN
100
AcDbLine
 10
129.5
 20
411.8000000000005
 30
0.0
 11
172.5000000000002
 21
411.8000000000005
 31
0.0
  0
LINE
  5
148
330
2
100
AcDbEntity
  8
L-ZISSEN
100
AcDbLine
 10
129.4999999999998
 20
381.6113248654056
 30
0.0
 11
129.3071796769722
 21
381.5000000000004
 31
0.0
  0
LINE
  5
149
330
2
100
AcDbEntity
  8
L-ZISSEN
100
AcDbLine
 10
135.0000000000001
 20
418.5
 30
0.0
 11
144.0000000000001
 21
418.5000000000009
 31
0.0
  0
LINE
  5
14A
330
2
100
AcDbEntity
  8
L-ZISSEN
100
AcDbLine
 10
135.0000000000002
 20
411.8000000000005
 30
0.0
 11
135.0000000000001
 21
418.5
 31
0.0
  0
LINE
  5
14B
330
2
100
AcDbEntity
  8
L-ZISSEN
100
AcDbLine
 10
135.0000000000003
 20
411.8000000000004
 30
0.0
 11
135.0000000000001
 21
414.3000000000009
 31
0.0
  0
LINE
  5
14C
330
2
100
AcDbEntity
  8
L-ZISSEN
100
AcDbLine
 10
158.0000000000001
 20
418.5
 30
0.0
 11
167.0000000000001
 21
418.5000000000005
 31
0.0
  0
LINE
  5
14D
330
2
100
AcDbEntity
  8
L-ZISSEN
100
AcDbLine
 10
167.0000000000001
 20
411.8000000000004
 30
0.0
 11
167.0000000000001
 21
418.5000000000005
 31
0.0
  0
LINE
  5
14E
330
2
100
AcDbEntity
  8
L-ZISSEN
100
AcDbLine
 10
167.0000000000003
 20
411.8000000000004
 30
0.0
 11
167.0
 21
414.3000000000004
 31
0.0
  0
LINE
  5
14F
330
2
100
AcDbEntity
  8
L-ZISSEN
100
AcDbLine
 10
180.5
 20
397.8000000000004
 30
0.0
 11
180.5
 21
404.3000000000004
 31
0.0
  0
LINE
  5
150
330
2
100
AcDbEntity
  8
L-ZISSEN
100
AcDbLine
 10
212.2000000000004
 20
402.0500000000004
 30
0.0
 11
180.5000000000003
 21
402.0500000000004
 31
0.0
  0
LINE
  5
151
330
2
100
AcDbEntity
  8
L-ZISSEN
100
AcDbLine
 10
212.2000000000003
 20
417.5500000000002
 30
0.0
 11
189.8000000000002
 21
417.5500000000002
 31
0.0
  0
LINE
  5
152
330
2
100
AcDbEntity
  8
L-ZISSEN
100
AcDbLine
 10
211.9696551146031
 20
422.3000000000003
 30
0.0
 11
190.0303448853973
 21
422.3000000000003
 31
0.0
  0
LINE
  5
153
330
2
100
AcDbEntity
  8
L-ZISSEN
100
AcDbLine
 10
189.8000000000002
 20
417.5500000000002
 30
0.0
 11
189.8000000000002
 21
402.0500000000004
 31
0.0
  0
LINE
  5
154
330
2
100
AcDbEntity
  8
L-ZISSEN
100
AcDbLine
 10
172.5000000000003
 20
411.8000000000004
 30
0.0
 11
172.5000000000003
 21
404.3000000000004
 31
0.0
  0
LINE
  5
155
330
2
100
AcDbEntity
  8
L-ZISSEN
100
AcDbLine
 10
172.5
 20
411.8000000000004
 30
0.0
 11
172.5
 21
404.3000000000004
 31
0.0
  0
LINE
  5
156
330
2
100
AcDbEntity
  8
L-ZISSEN
100
AcDbLine
 10
172.5000000000003
 20
404.3000000000004
 30
0.0
 11
180.5000000000003
 21
404.3000000000003
 31
0.0
  0
LINE
  5
157
330
2
100
AcDbEntity
  8
L-ZISSEN
100
AcDbLine
 10
172.5
 20
404.3000000000004
 30
0.0
 11
180.5
 21
404.3000000000004
 31
0.0
  0
LINE
  5
158
330
2
100
AcDbEntity
  8
L-ZISSEN
100
AcDbLine
 10
184.0
 20
402.0500000000004
 30
0.0
 11
184.0
 21
405.5000000000004
 31
0.0
  0
ARC
  5
159
330
2
100
AcDbEntity
  8
L-ZISSEN
100
AcDbCircle
 10
177.4999999999999
 20
403.5000000000003
 30
0.0
 40
5.0
100
AcDbArc
 50
343.142043977503
 51
0.0
  0
ARC
  5
15A
330
2
100
AcDbEntity
  8
L-ZISSEN
100
AcDbCircle
 10
182.5000000000004
 20
405.5000000000004
 30
0.0
 40
1.5
100
AcDbArc
 50
0.0
 51
90.0
  0
LINE
  5
15B
330
2
100
AcDbEntity
  8
L-ZISSEN
100
AcDbLine
 10
191.8500000000003
 20
422.3000000000003
 30
0.0
 11
191.8500000000003
 21
417.5500000000002
 31
0.0
  0
LINE
  5
15C
330
2
100
AcDbEntity
  8
L-ZISSEN
100
AcDbLine
 10
210.1500000000001
 20
422.3000000000003
 30
0.0
 11
210.1500000000001
 21
417.5500000000002
 31
0.0
  0
CIRCLE
  5
15D
330
2
100
AcDbEntity
  8
L-ZISSEN
100
AcDbCircle
 10
172.9999999999999
 20
452.0000000000005
 30
0.0
 40
5.0
  0
ARC
  5
15E
330
2
100
AcDbEntity
  8
L-ZISSEN
100
AcDbCircle
 10
172.9999999999999
 20
452.0000000000005
 30
0.0
 40
6.3
100
AcDbArc
 50
180.0000000000005
 51
266.5463560015917
  0
LINE
  5
15F
330
2
100
AcDbEntity
  8
L-ZISSEN
100
AcDbLine
 10
182.4999999999999
 20
461.5000000000003
 30
0.0
 11
158.9999999999998
 21
461.5000000000003
 31
0.0
  0
LINE
  5
160
330
2
100
AcDbEntity
  8
L-ZISSEN
100
AcDbLine
 10
145.7880451372612
 20
445.9999999999998
 30
0.0
 11
145.7880451372612
 21
434.4730752984849
 31
0.0
  0
LINE
  5
161
330
2
100
AcDbEntity
  8
L-ZISSEN
100
AcDbLine
 10
156.2119548627389
 20
445.9999999999995
 30
0.0
 11
156.2119548627389
 21
434.4730752984851
 31
0.0
  0
CIRCLE
  5
162
330
2
100
AcDbEntity
  8
L-ZISSEN
100
AcDbCircle
 10
151.0
 20
427.8000000000003
 30
0.0
 40
4.25
  0
LINE
  5
163
330
2
100
AcDbEntity
  8
L-ZISSEN
100
AcDbLine
 10
144.0000000000001
 20
427.8000000000003
 30
0.0
 11
145.7880451372612
 21
434.473075298485
 31
0.0
  0
LINE
  5
164
330
2
100
AcDbEntity
  8
L-ZISSEN
100
AcDbLine
 10
136.5
 20
435.0000000000005
 30
0.0
 11
136.4999999999999
 21
424.0092529172983
 31
0.0
  0
CIRCLE
  5
165
330
2
100
AcDbEntity
  8
L-ZISSEN
100
AcDbCircle
 10
141.0000000000001
 20
434.9999999999999
 30
0.0
 40
3.5
  0
LINE
  5
166
330
2
100
AcDbEntity
  8
L-ZISSEN
100
AcDbLine
 10
137.9999999999999
 20
430.5
 30
0.0
 11
144.7234628195642
 21
430.5000000000003
 31
0.0
  0
LINE
  5
167
330
2
100
AcDbEntity
  8
L-ZISSEN
100
AcDbLine
 10
136.5000000000001
 20
439.4999999999999
 30
0.0
 11
145.7880451372612
 21
439.4999999999999
 31
0.0
  0
LINE
  5
168
330
2
100
AcDbEntity
  8
L-ZISSEN
100
AcDbLine
 10
165.5
 20
435.0000000000007
 30
0.0
 11
165.5
 21
424.0092529172982
 31
0.0
  0
LINE
  5
169
330
2
100
AcDbEntity
  8
L-ZISSEN
100
AcDbLine
 10
158.0000000000001
 20
427.8000000000003
 30
0.0
 11
156.2119548627389
 21
434.4730752984851
 31
0.0
  0
CIRCLE
  5
16A
330
2
100
AcDbEntity
  8
L-ZISSEN
100
AcDbCircle
 10
161.0000000000001
 20
434.9999999999999
 30
0.0
 40
3.5
  0
LINE
  5
16B
330
2
100
AcDbEntity
  8
L-ZISSEN
100
AcDbLine
 10
157.2765371804361
 20
430.5000000000001
 30
0.0
 11
164.9476281568617
 21
430.5
 31
0.0
  0
SOLID
  5
16C
330
2
100
AcDbEntity
  8
L-ZISSEN
100
AcDbTrace
 10
152.6707489028696
 20
431.1487835156334
 30
0.0
 11
152.207859622481
 21
431.6285521666994
 31
0.0
 12
150.9999983094772
 22
430.0000000000005
 32
0.0
 13
150.9999983094772
 23
430.0000000000005
 33
0.0
  0
LINE
  5
16D
330
2
100
AcDbEntity
  8
L-ZISSEN
100
AcDbLine
 10
165.5000000000001
 20
439.4999999999994
 30
0.0
 11
156.2119548627389
 21
439.4999999999999
 31
0.0
  0
LINE
  5
16E
330
2
100
AcDbEntity
  8
L-ZISSEN
100
AcDbLine
 10
156.2119548627389
 20
445.9999999999995
 30
0.0
 11
145.7880451372612
 21
445.9999999999998
 31
0.0
  0
LINE
  5
16F
330
2
100
AcDbEntity
  8
L-ZISSEN
100
AcDbLine
 10
166.6999999999998
 20
456.0000000000004
 30
0.0
 11
135.2999999999996
 21
456.0000000000003
 31
0.0
  0
LINE
  5
170
330
2
100
AcDbEntity
  8
L-ZISSEN
100
AcDbLine
 10
135.2999999999996
 20
456.0000000000003
 30
0.0
 11
135.3000000000002
 21
445.7000000000004
 31
0.0
  0
LINE
  5
171
330
2
100
AcDbEntity
  8
L-ZISSEN
100
AcDbLine
 10
142.9999999999999
 20
463.0000000000003
 30
0.0
 11
135.9999999999999
 21
463.0000000000003
 31
0.0
  0
LINE
  5
172
330
2
100
AcDbEntity
  8
L-ZISSEN
100
AcDbLine
 10
135.9999999999999
 20
461.5000000000003
 30
0.0
 11
135.9999999999999
 21
465.5358983848624
 31
0.0
  0
LINE
  5
173
330
2
100
AcDbEntity
  8
L-ZISSEN
100
AcDbLine
 10
166.6999999999998
 20
456.0000000000004
 30
0.0
 11
166.6999999999998
 21
452.0000000000004
 31
0.0
  0
LINE
  5
174
330
2
100
AcDbEntity
  8
L-ZISSEN
100
AcDbLine
 10
166.0000000000003
 20
461.5000000000003
 30
0.0
 11
166.0000000000004
 21
465.5358983848623
 31
0.0
  0
LINE
  5
175
330
2
100
AcDbEntity
  8
L-ZISSEN
100
AcDbLine
 10
166.0000000000003
 20
463.0000000000003
 30
0.0
 11
158.9999999999998
 21
463.0000000000003
 31
0.0
  0
ARC
  5
176
330
2
100
AcDbEntity
  8
L-ZISSEN
100
AcDbCircle
 10
172.5
 20
443.7150739291169
 30
0.0
 40
2.0
100
AcDbArc
 50
0.0
 51
86.5463560015919
  0
LINE
  5
177
330
2
100
AcDbEntity
  8
L-ZISSEN
100
AcDbLine
 10
211.9696551146031
 20
427.3000000000002
 30
0.0
 11
190.0303448853973
 21
427.3000000000003
 31
0.0
  0
LINE
  5
178
330
2
100
AcDbEntity
  8
L-ZISSEN
100
AcDbLine
 10
182.5000000000004
 20
453.0000000000003
 30
0.0
 11
184.0000000000004
 21
453.0000000000003
 31
0.0
  0
LINE
  5
179
330
2
100
AcDbEntity
  8
L-ZISSEN
100
AcDbLine
 10
117.9999999999999
 20
469.0000000000004
 30
0.0
 11
133.9999999999999
 21
469.0000000000001
 31
0.0
  0
LINE
  5
17A
330
2
100
AcDbEntity
  8
L-ZISSEN
100
AcDbLine
 10
119.9999999999999
 20
478.5000000000005
 30
0.0
 11
129.9999999999999
 21
478.5000000000003
 31
0.0
  0
LINE
  5
17B
330
2
100
AcDbEntity
  8
L-ZISSEN
100
AcDbLine
 10
117.9999999999999
 20
471.0000000000005
 30
0.0
 11
143.0000000000001
 21
471.0000000000003
 31
0.0
  0
LINE
  5
17C
330
2
100
AcDbEntity
  8
L-ZISSEN
100
AcDbLine
 10
104.2000000000001
 20
473.2000000000004
 30
0.0
 11
104.2
 21
500.0000000000003
 31
0.0
  0
LINE
  5
17D
330
2
100
AcDbEntity
  8
L-ZISSEN
100
AcDbLine
 10
101.0000000000001
 20
470.0000000000005
 30
0.0
 11
101.0
 21
500.0000000000003
 31
0.0
  0
LINE
  5
17E
330
2
100
AcDbEntity
  8
L-ZISSEN
100
AcDbLine
 10
114.8
 20
470.0000000000003
 30
0.0
 11
101.0000000000001
 21
470.0000000000005
 31
0.0
  0
LINE
  5
17F
330
2
100
AcDbEntity
  8
L-ZISSEN
100
AcDbLine
 10
117.9999999999999
 20
473.2000000000004
 30
0.0
 11
104.2000000000001
 21
473.2000000000004
 31
0.0
  0
LINE
  5
180
330
2
100
AcDbEntity
  8
L-ZISSEN
100
AcDbLine
 10
119.9999999999999
 20
478.5000000000005
 30
0.0
 11
119.9999999999999
 21
471.0000000000003
 31
0.0
  0
LINE
  5
181
102
{ACAD_REACTORS
330
376
102
}
330
2
100
AcDbEntity
  8
L-ZISSEN
100
AcDbLine
 10
104.2
 20
500.0000000000003
 30
0.0
 11
100.9999999999999
 21
500.0000000000003
 31
0.0
  0
LINE
  5
182
102
{ACAD_REACTORS
330
367
330
385
102
}
330
2
100
AcDbEntity
  8
L-TYUSIN
100
AcDbLine
 10
107.7
 20
486.5000000000003
 30
0.0
 11
97.50000000000001
 21
486.5000000000003
 31
0.0
  0
LINE
  5
183
330
2
100
AcDbEntity
  8
L-ZISSEN
100
AcDbLine
 10
184.0000000000004
 20
469.0000000000003
 30
0.0
 11
168.0000000000004
 21
469.0000000000001
 31
0.0
  0
LINE
  5
184
330
2
100
AcDbEntity
  8
L-ZISSEN
100
AcDbLine
 10
158.9999999999999
 20
471.0000000000003
 30
0.0
 11
184.0000000000004
 21
471.0000000000005
 31
0.0
  0
LINE
  5
185
330
2
100
AcDbEntity
  8
L-ZISSEN
100
AcDbLine
 10
173.4999999999999
 20
486.0000000000002
 30
0.0
 11
128.5000000000001
 21
486.0000000000003
 31
0.0
  0
LINE
  5
186
330
2
100
AcDbEntity
  8
L-ZISSEN
100
AcDbLine
 10
158.9999999999999
 20
479.5000000000004
 30
0.0
 11
142.9999999999999
 21
479.5000000000003
 31
0.0
  0
LINE
  5
187
330
2
100
AcDbEntity
  8
L-ZISSEN
100
AcDbLine
 10
128.5000000000001
 20
486.0000000000003
 30
0.0
 11
128.5000000000001
 21
478.5000000000004
 31
0.0
  0
LINE
  5
188
330
2
100
AcDbEntity
  8
L-ZISSEN
100
AcDbLine
 10
129.9999999999999
 20
476.3938321230939
 30
0.0
 11
129.9999999999999
 21
472.5000000000004
 31
0.0
  0
LINE
  5
189
330
2
100
AcDbEntity
  8
L-ZISSEN
100
AcDbLine
 10
129.9999999999999
 20
478.5000000000003
 30
0.0
 11
129.9999999999999
 21
471.0000000000004
 31
0.0
  0
LINE
  5
18A
330
2
100
AcDbEntity
  8
L-ZISSEN
100
AcDbLine
 10
173.4999999999999
 20
486.0000000000002
 30
0.0
 11
173.4999999999999
 21
478.5000000000004
 31
0.0
  0
LINE
  5
18B
330
2
100
AcDbEntity
  8
L-ZISSEN
100
AcDbLine
 10
181.9999999999999
 20
478.5000000000003
 30
0.0
 11
171.9999999999999
 21
478.5000000000004
 31
0.0
  0
LINE
  5
18C
330
2
100
AcDbEntity
  8
L-ZISSEN
100
AcDbLine
 10
171.9999999999999
 20
476.3938321230939
 30
0.0
 11
171.9999999999999
 21
472.5000000000004
 31
0.0
  0
LINE
  5
18D
330
2
100
AcDbEntity
  8
L-ZISSEN
100
AcDbLine
 10
171.9999999999999
 20
478.5000000000004
 30
0.0
 11
172.0
 21
471.0000000000004
 31
0.0
  0
LINE
  5
18E
330
2
100
AcDbEntity
  8
L-ZISSEN
100
AcDbLine
 10
181.9999999999999
 20
478.5000000000003
 30
0.0
 11
181.9999999999999
 21
471.0000000000005
 31
0.0
  0
TEXT
  5
18F
330
2
100
AcDbEntity
  8
L-ZISSEN
100
AcDbText
 10
481.8254855751184
 20
445.5614203904422
 30
0.0
 40
4.5
  1
0
100
AcDbText
  0
TEXT
  5
190
330
2
100
AcDbEntity
  8
L-ZISSEN
100
AcDbText
 10
481.8254855751184
 20
439.5614203904422
 30
0.0
 40
4.5
  1
1
100
AcDbText
  0
TEXT
  5
191
330
2
100
AcDbEntity
  8
L-ZISSEN
100
AcDbText
 10
396.8159479556998
 20
441.5614203904422
 30
0.0
 40
4.5
  1
MODEL NO. : 268- 01-  B0
100
AcDbText
  0
TEXT
  5
192
330
2
100
AcDbEntity
  8
L-ZISSEN
100
AcDbText
 10
463.7462882768382
 20
433.5614203904422
 30
0.0
 40
4.5
  1
A
100
AcDbText
  0
TEXT
  5
193
330
2
100
AcDbEntity
  8
L-ZISSEN
100
AcDbText
 10
463.7462882768382
 20
439.5614203904422
 30
0.0
 40
4.5
  1
8
100
AcDbText
  0
TEXT
  5
194
330
2
100
AcDbEntity
  8
L-ZISSEN
100
AcDbText
 10
463.7462882768382
 20
445.5614203904422
 30
0.0
 40
4.5
  1
6
100
AcDbText
  0
TEXT
  5
195
330
2
100
AcDbEntity
  8
L-ZISSEN
100
AcDbText
 10
463.7462882768382
 20
451.5614203904422
 30
0.0
 40
4.5
  1
4
100
AcDbText
  0
TEXT
  5
196
330
2
100
AcDbEntity
  8
L-ZISSEN
100
AcDbText
 10
505.0733653302982
 20
421.9491970316251
 30
0.0
 40
4.5
  1
DC-100V
100
AcDbText
  0
TEXT
  5
197
330
2
100
AcDbEntity
  8
L-ZISSEN
100
AcDbText
 10
505.0733653302982
 20
445.7630790424196
 30
0.0
 40
4.5
  1
AC-100V
100
AcDbText
  0
TEXT
  5
198
330
2
100
AcDbEntity
  8
L-ZISSEN
100
AcDbText
 10
505.0733653302982
 20
437.7630790424196
 30
0.0
 40
4.5
  1
AC-200V
100
AcDbText
  0
TEXT
  5
199
330
2
100
AcDbEntity
  8
L-ZISSEN
100
AcDbText
 10
505.0733653302982
 20
429.9491970316251
 30
0.0
 40
4.5
  1
DC-24V
100
AcDbText
  0
TEXT
  5
19A
330
2
100
AcDbEntity
  8
L-ZISSEN
100
AcDbText
 10
485.8254855751184
 20
439.5614203904422
 30
0.0
 40
4.5
  1
1
100
AcDbText
  0
TEXT
  5
19B
330
2
100
AcDbEntity
  8
L-ZISSEN
100
AcDbText
 10
485.8254855751184
 20
445.5614203904422
 30
0.0
 40
4.5
  1
0
100
AcDbText
  0
LINE
  5
19C
330
2
100
AcDbEntity
  8
L-TYUSIN
100
AcDbLine
 10
618.4462269261846
 20
290.0
 30
0.0
 11
618.4462269261846
 21
119.4999999999999
 31
0.0
  0
LINE
  5
19D
330
2
100
AcDbEntity
  8
L-TYUSIN
100
AcDbLine
 10
704.5749254167542
 20
575.9053699155406
 30
0.0
 11
704.5749254167542
 21
97.99630703306684
 31
0.0
  0
LINE
  5
19E
330
2
100
AcDbEntity
  8
L-ZISSEN
100
AcDbLine
 10
791.3704409814846
 20
294.8055644601158
 30
0.0
 11
791.3704409814848
 21
221.6055644601157
 31
0.0
  0
LINE
  5
19F
330
2
100
AcDbEntity
  8
L-ZISSEN
100
AcDbLine
 10
768.5704409814846
 20
294.8055644601158
 30
0.0
 11
768.5704409814847
 21
221.6055644601157
 31
0.0
  0
CIRCLE
  5
1A0
330
2
100
AcDbEntity
  8
L-ZISSEN
100
AcDbCircle
 10
779.9704409814847
 20
285.8055644601158
 30
0.0
 40
8.0
  0
LINE
  5
1A1
330
2
100
AcDbEntity
  8
L-ZISSEN
100
AcDbLine
 10
828.9168835434742
 20
294.8055644601158
 30
0.0
 11
828.9168835434743
 21
276.8055644601156
 31
0.0
  0
LINE
  5
1A2
330
2
100
AcDbEntity
  8
L-ZISSEN
100
AcDbLine
 10
823.7168835434743
 20
294.8055644601157
 30
0.0
 11
823.7168835434743
 21
276.8055644601157
 31
0.0
  0
LINE
  5
1A3
330
2
100
AcDbEntity
  8
L-ZISSEN
100
AcDbLine
 10
968.9168835434743
 20
221.6055644601157
 30
0.0
 11
968.9168835434743
 21
294.8055644601157
 31
0.0
  0
LINE
  5
1A4
330
2
100
AcDbEntity
  8
L-ZISSEN
100
AcDbLine
 10
874.9168835434741
 20
221.6055644601157
 30
0.0
 11
874.9168835434741
 21
294.8055644601157
 31
0.0
  0
LINE
  5
1A5
330
2
100
AcDbEntity
  8
L-ZISSEN
100
AcDbLine
 10
912.5388927426749
 20
221.7063812729912
 30
0.0
 11
939.7864856405853
 21
304.9731283842868
 31
0.0
  0
LINE
  5
1A6
330
2
100
AcDbEntity
  8
L-ZISSEN
100
AcDbLine
 10
833.7168835434742
 20
294.8055644601157
 30
0.0
 11
833.7168835434742
 21
276.8055644601157
 31
0.0
  0
LINE
  5
1A7
330
2
100
AcDbEntity
  8
L-ZISSEN
100
AcDbLine
 10
845.9168835434742
 20
253.0055644601156
 30
0.0
 11
845.9168835434741
 21
294.8055644601157
 31
0.0
  0
LINE
  5
1A8
330
2
100
AcDbEntity
  8
L-ZISSEN
100
AcDbLine
 10
1010.116883543474
 20
294.8055644601157
 30
0.0
 11
1010.116883543474
 21
276.8055644601157
 31
0.0
  0
LINE
  5
1A9
330
2
100
AcDbEntity
  8
L-ZISSEN
100
AcDbLine
 10
1014.916883543474
 20
294.8055644601158
 30
0.0
 11
1014.916883543474
 21
276.8055644601156
 31
0.0
  0
LINE
  5
1AA
330
2
100
AcDbEntity
  8
L-ZISSEN
100
AcDbLine
 10
1020.116883543474
 20
294.8055644601158
 30
0.0
 11
1020.116883543474
 21
276.8055644601156
 31
0.0
  0
LINE
  5
1AB
330
2
100
AcDbEntity
  8
L-ZISSEN
100
AcDbLine
 10
997.9168835434741
 20
253.0055644601156
 30
0.0
 11
997.9168835434741
 21
294.8055644601157
 31
0.0
  0
LINE
  5
1AC
330
2
100
AcDbEntity
  8
L-ZISSEN
100
AcDbLine
 10
1095.352410717034
 20
294.8055644601158
 30
0.0
 11
1095.352410717034
 21
221.6055644601157
 31
0.0
  0
LINE
  5
1AD
330
2
100
AcDbEntity
  8
L-ZISSEN
100
AcDbLine
 10
1072.552410717034
 20
294.8055644601158
 30
0.0
 11
1072.552410717034
 21
221.6055644601157
 31
0.0
  0
CIRCLE
  5
1AE
330
2
100
AcDbEntity
  8
L-ZISSEN
100
AcDbCircle
 10
1083.952410717034
 20
285.8055644601158
 30
0.0
 40
8.0
  0
LINE
  5
1AF
330
2
100
AcDbEntity
  8
L-TYUSIN
100
AcDbLine
 10
704.5749254167542
 20
197.291726548536
 30
0.0
 11
1144.054078229645
 21
197.291726548536
 31
0.0
  0
LINE
  5
1B0
330
2
100
AcDbEntity
  8
L-ZISSEN
100
AcDbLine
 10
885.9168835434742
 20
219.8055644601157
 30
0.0
 11
957.9168835434741
 21
219.8055644601157
 31
0.0
  0
LINE
  5
1B1
330
2
100
AcDbEntity
  8
L-ZISSEN
100
AcDbLine
 10
897.4168835434743
 20
270.3055644601157
 30
0.0
 11
946.4168835434741
 21
270.3055644601157
 31
0.0
  0
LINE
  5
1B2
330
2
100
AcDbEntity
  8
L-ZISSEN
100
AcDbLine
 10
885.916883543474
 20
254.8055644601157
 30
0.0
 11
957.9168835434743
 21
254.8055644601156
 31
0.0
  0
LINE
  5
1B3
330
2
100
AcDbEntity
  8
L-ZISSEN
100
AcDbLine
 10
923.4168835434741
 20
275.3055644601157
 30
0.0
 11
930.4168835434743
 21
275.3055644601157
 31
0.0
  0
LINE
  5
1B4
330
2
100
AcDbEntity
  8
L-ZISSEN
  6
Continuous
100
AcDbLine
 10
922.1281628734691
 20
156.571750362794
 30
0.0
 11
930.1281628734691
 21
156.571750362794
 31
0.0
  0
LINE
  5
1B5
330
2
100
AcDbEntity
  8
L-ZISSEN
100
AcDbLine
 10
927.1331039725785
 20
99.8009390128029
 30
0.0
 11
943.8021735807098
 21
128.4831831743164
 31
0.0
  0
LINE
  5
1B6
330
2
100
AcDbEntity
  8
L-ZISSEN
100
AcDbLine
 10
885.1250373098345
 20
99.80093901280347
 30
0.0
 11
901.7941069179658
 21
128.483183174317
 31
0.0
  0
SOLID
  5
1B7
330
2
100
AcDbEntity
  8
L-ZISSEN
100
AcDbTrace
 10
885.4132354181694
 20
99.63344882961857
 30
0.0
 11
884.8368392014996
 21
99.96842919598836
 31
0.0
 12
884.1200962107251
 22
98.0717503627942
 32
0.0
 13
884.1200962107251
 23
98.0717503627942
 33
0.0
  0
SOLID
  5
1B8
330
2
100
AcDbEntity
  8
L-ZISSEN
100
AcDbTrace
 10
927.4213020809134
 20
99.633448829618
 30
0.0
 11
926.8449058642436
 21
99.9684291959878
 31
0.0
 12
926.1281628734691
 22
98.07175036279364
 32
0.0
 13
926.1281628734691
 23
98.07175036279364
 33
0.0
  0
LINE
  5
1B9
330
2
100
AcDbEntity
  8
L-ZISSEN
100
AcDbLine
 10
752.7356908440086
 20
242.3067295680914
 30
0.0
 11
748.4462532975447
 21
242.3067295680914
 31
0.0
  0
TEXT
  5
1BA
330
2
100
AcDbEntity
  8
L-ZISSEN
100
AcDbText
 10
726.5634930995734
 20
182.5116087647446
 30
0.0
 40
4.5
  1
MANUAL BUTTON TYPE
100
AcDbText
  0
TEXT
  5
1BB
330
2
100
AcDbEntity
  8
L-ZISSEN
100
AcDbText
 10
726.5634930995734
 20
169.0609579436943
 30
0.0
 40
4.5
  1
MODEL NO. : 268-*01- *R*
100
AcDbText
  0
CIRCLE
  5
1BC
330
2
100
AcDbEntity
  8
L-ZISSEN
100
AcDbCircle
 10
592.4462269261845
 20
196.0
 30
0.0
 40
4.999999999999943
  0
LINE
  5
1BD
330
2
100
AcDbEntity
  8
L-ZISSEN
100
AcDbLine
 10
585.4462269261845
 20
146.0
 30
0.0
 11
585.4462269261846
 21
218.9999999999998
 31
0.0
  0
CIRCLE
  5
1BE
330
2
100
AcDbEntity
  8
L-ZISSEN
100
AcDbCircle
 10
644.4462269261846
 20
196.0
 30
0.0
 40
4.999999999999943
  0
LINE
  5
1BF
330
2
100
AcDbEntity
  8
L-ZISSEN
100
AcDbLine
 10
651.4462269261846
 20
219.9999999999998
 30
0.0
 11
651.4462269261844
 21
146.0
 31
0.0
  0
LINE
  5
1C0
330
2
100
AcDbEntity
  8
L-ZISSEN
100
AcDbLine
 10
668.4462269261846
 20
219.9999999999999
 30
0.0
 11
668.4462269261846
 21
195.9999999999999
 31
0.0
  0
LINE
  5
1C1
330
2
100
AcDbEntity
  8
L-ZISSEN
100
AcDbLine
 10
665.2462269261848
 20
219.9999999999999
 30
0.0
 11
665.2462269261848
 21
195.9999999999999
 31
0.0
  0
LINE
  5
1C2
330
2
100
AcDbEntity
  8
L-ZISSEN
100
AcDbLine
 10
651.4462269261846
 20
195.9999999999998
 30
0.0
 11
668.4462269261845
 21
195.9999999999997
 31
0.0
  0
CIRCLE
  5
1C3
330
2
100
AcDbEntity
  8
L-ZISSEN
100
AcDbCircle
 10
618.4462269261846
 20
174.0
 30
0.0
 40
22.5
  0
CIRCLE
  5
1C4
330
2
100
AcDbEntity
  8
L-ZISSEN
100
AcDbCircle
 10
592.4462269261847
 20
151.9999999999999
 30
0.0
 40
4.999999999999943
  0
CIRCLE
  5
1C5
330
2
100
AcDbEntity
  8
L-ZISSEN
100
AcDbCircle
 10
644.4462269261849
 20
151.9999999999999
 30
0.0
 40
4.999999999999943
  0
LINE
  5
1C6
330
2
100
AcDbEntity
  8
L-ZISSEN
100
AcDbLine
 10
646.4462269261846
 20
135.0
 30
0.0
 11
590.4462269261845
 21
135.0
 31
0.0
  0
LINE
  5
1C7
330
2
100
AcDbEntity
  8
L-ZISSEN
100
AcDbLine
 10
585.4462269261845
 20
146.0
 30
0.0
 11
651.4462269261846
 21
146.0
 31
0.0
  0
LINE
  5
1C8
330
2
100
AcDbEntity
  8
L-ZISSEN
100
AcDbLine
 10
646.4462269261846
 20
130.5
 30
0.0
 11
590.4462269261847
 21
130.4999999999999
 31
0.0
  0
LINE
  5
1C9
330
2
100
AcDbEntity
  8
L-ZISSEN
100
AcDbLine
 10
635.4462269261846
 20
127.4999999999999
 30
0.0
 11
601.4462269261845
 21
127.4999999999999
 31
0.0
  0
LINE
  5
1CA
330
2
100
AcDbEntity
  8
L-ZISSEN
100
AcDbLine
 10
591.4462269261846
 20
123.5
 30
0.0
 11
591.4462269261845
 21
130.4999999999999
 31
0.0
  0
LINE
  5
1CB
330
2
100
AcDbEntity
  8
L-ZISSEN
100
AcDbLine
 10
601.4462269261845
 20
123.5
 30
0.0
 11
601.4462269261845
 21
130.4999999999999
 31
0.0
  0
LINE
  5
1CC
330
2
100
AcDbEntity
  8
L-ZISSEN
100
AcDbLine
 10
601.4462269261845
 20
123.5
 30
0.0
 11
591.4462269261846
 21
123.5
 31
0.0
  0
LINE
  5
1CD
330
2
100
AcDbEntity
  8
L-ZISSEN
100
AcDbLine
 10
590.4462269261847
 20
130.4999999999999
 30
0.0
 11
590.4462269261845
 21
146.0
 31
0.0
  0
LINE
  5
1CE
330
2
100
AcDbEntity
  8
L-ZISSEN
100
AcDbLine
 10
635.4462269261847
 20
123.5
 30
0.0
 11
635.4462269261846
 21
130.4999999999999
 31
0.0
  0
LINE
  5
1CF
330
2
100
AcDbEntity
  8
L-ZISSEN
100
AcDbLine
 10
645.4462269261846
 20
123.4999999999999
 30
0.0
 11
645.4462269261846
 21
130.4999999999999
 31
0.0
  0
LINE
  5
1D0
330
2
100
AcDbEntity
  8
L-ZISSEN
100
AcDbLine
 10
645.4462269261846
 20
123.4999999999999
 30
0.0
 11
635.4462269261847
 21
123.5
 31
0.0
  0
LINE
  5
1D1
330
2
100
AcDbEntity
  8
L-ZISSEN
100
AcDbLine
 10
646.4462269261846
 20
130.5
 30
0.0
 11
646.4462269261846
 21
146.0
 31
0.0
  0
LINE
  5
1D2
330
2
100
AcDbEntity
  8
L-TYUSIN
100
AcDbLine
 10
595.9462269261846
 20
174.0
 30
0.0
 11
640.9462269261846
 21
174.0
 31
0.0
  0
CIRCLE
  5
1D3
330
2
100
AcDbEntity
  8
L-ZISSEN
100
AcDbCircle
 10
618.4462269261846
 20
174.0000000000001
 30
0.0
 40
15.1455
  0
TEXT
  5
1D4
330
2
100
AcDbEntity
  8
L-ZISSEN
100
AcDbText
 10
658.7222249503042
 20
264.7703953087038
 30
0.0
 40
4.6
  1
-P.P
100
AcDbText
  0
LINE
  5
1D5
330
2
100
AcDbEntity
  8
L-ZISSEN
100
AcDbLine
 10
651.4462269261846
 20
219.9999999999998
 30
0.0
 11
668.4462269261845
 21
219.9999999999998
 31
0.0
  0
LINE
  5
1D6
330
2
100
AcDbEntity
  8
L-ZISSEN
100
AcDbLine
 10
620.067771159872
 20
239.170723835153
 30
0.0
 11
658.7021805761191
 21
267.0640264173466
 31
0.0
  0
CIRCLE
  5
1D7
330
2
100
AcDbEntity
  8
L-ZISSEN
100
AcDbCircle
 10
618.4462269261849
 20
228.0000000000001
 30
0.0
 40
4.864
  0
LINE
  5
1D8
330
2
100
AcDbEntity
  8
L-ZISSEN
100
AcDbLine
 10
586.9462269261845
 20
219.9999999999999
 30
0.0
 11
649.9462269261846
 21
219.9999999999999
 31
0.0
  0
LINE
  5
1D9
330
2
100
AcDbEntity
  8
L-ZISSEN
100
AcDbLine
 10
585.4462269261845
 20
201.9999999999999
 30
0.0
 11
651.4462269261844
 21
201.9999999999999
 31
0.0
  0
LINE
  5
1DA
330
2
100
AcDbEntity
  8
L-ZISSEN
100
AcDbLine
 10
646.9462269261849
 20
238.0000000000001
 30
0.0
 11
594.9462269261849
 21
238.0000000000001
 31
0.0
  0
LINE
  5
1DB
330
2
100
AcDbEntity
  8
L-ZISSEN
100
AcDbLine
 10
610.9462269261849
 20
204.000000000003
 30
0.0
 11
625.9462269261844
 21
204.000000000003
 31
0.0
  0
LINE
  5
1DC
330
2
100
AcDbEntity
  8
L-TYUSIN
100
AcDbLine
 10
610.5615443094089
 20
228.0000000000001
 30
0.0
 11
626.3309095429609
 21
228.0000000000001
 31
0.0
  0
LINE
  5
1DD
330
2
100
AcDbEntity
  8
L-ZISSEN
100
AcDbLine
 10
626.4462269261849
 20
236.0
 30
0.0
 11
610.4462269261849
 21
236.0000000000001
 31
0.0
  0
LINE
  5
1DE
330
2
100
AcDbEntity
  8
L-ZISSEN
100
AcDbLine
 10
586.9462269261849
 20
229.0000000000003
 30
0.0
 11
586.9462269261849
 21
219.0
 31
0.0
  0
LINE
  5
1DF
330
2
100
AcDbEntity
  8
L-ZISSEN
100
AcDbLine
 10
610.4462269261849
 20
236.0000000000001
 30
0.0
 11
610.4462269261849
 21
220.0000000000001
 31
0.0
  0
LINE
  5
1E0
330
2
100
AcDbEntity
  8
L-ZISSEN
100
AcDbLine
 10
585.4462269261845
 20
203.3538462074014
 30
0.0
 11
603.4462269261846
 21
203.3538462074014
 31
0.0
  0
LINE
  5
1E1
330
2
100
AcDbEntity
  8
L-ZISSEN
100
AcDbLine
 10
603.4462269261846
 20
218.9999999999999
 30
0.0
 11
585.4462269261846
 21
218.9999999999999
 31
0.0
  0
LINE
  5
1E2
330
2
100
AcDbEntity
  8
L-ZISSEN
100
AcDbLine
 10
603.4462269261846
 20
219.0000000000001
 30
0.0
 11
603.4462269261846
 21
203.3538462074015
 31
0.0
  0
LINE
  5
1E3
330
2
100
AcDbEntity
  8
L-ZISSEN
100
AcDbLine
 10
610.9462269261855
 20
219.9999999999999
 30
0.0
 11
610.9462269261849
 21
204.000000000003
 31
0.0
  0
LINE
  5
1E4
330
2
100
AcDbEntity
  8
L-ZISSEN
100
AcDbLine
 10
591.4462269261849
 20
236.5000000000002
 30
0.0
 11
601.4462269261849
 21
236.5000000000003
 31
0.0
  0
LINE
  5
1E5
330
2
100
AcDbEntity
  8
L-ZISSEN
100
AcDbLine
 10
586.9462269261849
 20
229.0000000000003
 30
0.0
 11
610.5089729929914
 21
229.0000000000002
 31
0.0
  0
LINE
  5
1E6
330
2
100
AcDbEntity
  8
L-ZISSEN
100
AcDbLine
 10
591.4462269261849
 20
236.5000000000002
 30
0.0
 11
591.4462269261849
 21
229.0000000000003
 31
0.0
  0
LINE
  5
1E7
330
2
100
AcDbEntity
  8
L-ZISSEN
100
AcDbLine
 10
602.7462269261848
 20
238.0000000000002
 30
0.0
 11
602.7462269261848
 21
229.0000000000003
 31
0.0
  0
LINE
  5
1E8
330
2
100
AcDbEntity
  8
L-ZISSEN
100
AcDbLine
 10
601.4462269261849
 20
236.5000000000003
 30
0.0
 11
601.4462269261849
 21
229.0000000000002
 31
0.0
  0
LINE
  5
1E9
330
2
100
AcDbEntity
  8
L-ZISSEN
100
AcDbLine
 10
594.9462269261849
 20
236.5000000000003
 30
0.0
 11
594.9462269261849
 21
238.0000000000001
 31
0.0
  0
LINE
  5
1EA
330
2
100
AcDbEntity
  8
L-ZISSEN
100
AcDbLine
 10
626.4462269261849
 20
236.0
 30
0.0
 11
626.4462269261849
 21
220.0000000000001
 31
0.0
  0
LINE
  5
1EB
330
2
100
AcDbEntity
  8
L-TYUSIN
100
AcDbLine
 10
618.4462269261849
 20
235.884682616776
 30
0.0
 11
618.4462269261849
 21
220.1153173832241
 31
0.0
  0
LINE
  5
1EC
330
2
100
AcDbEntity
  8
L-ZISSEN
100
AcDbLine
 10
649.9462269261849
 20
229.0
 30
0.0
 11
649.9462269261849
 21
219.0
 31
0.0
  0
LINE
  5
1ED
330
2
100
AcDbEntity
  8
L-ZISSEN
100
AcDbLine
 10
633.4462269261849
 20
218.9999999999999
 30
0.0
 11
651.4462269261846
 21
218.9999999999999
 31
0.0
  0
LINE
  5
1EE
330
2
100
AcDbEntity
  8
L-ZISSEN
100
AcDbLine
 10
651.4462269261849
 20
203.3538462074014
 30
0.0
 11
633.4462269261846
 21
203.3538462074014
 31
0.0
  0
LINE
  5
1EF
330
2
100
AcDbEntity
  8
L-ZISSEN
100
AcDbLine
 10
633.4462269261849
 20
219.0000000000001
 30
0.0
 11
633.4462269261846
 21
203.3538462074015
 31
0.0
  0
LINE
  5
1F0
330
2
100
AcDbEntity
  8
L-ZISSEN
100
AcDbLine
 10
625.9462269261837
 20
219.9999999999999
 30
0.0
 11
625.9462269261844
 21
204.000000000003
 31
0.0
  0
LINE
  5
1F1
330
2
100
AcDbEntity
  8
L-ZISSEN
100
AcDbLine
 10
645.446226926185
 20
236.5000000000002
 30
0.0
 11
635.4462269261849
 21
236.5000000000004
 31
0.0
  0
LINE
  5
1F2
330
2
100
AcDbEntity
  8
L-ZISSEN
100
AcDbLine
 10
626.3834808593783
 20
229.0000000000001
 30
0.0
 11
649.9462269261849
 21
229.0
 31
0.0
  0
LINE
  5
1F3
330
2
100
AcDbEntity
  8
L-ZISSEN
100
AcDbLine
 10
635.4462269261849
 20
236.5000000000004
 30
0.0
 11
635.4462269261849
 21
229.0000000000001
 31
0.0
  0
LINE
  5
1F4
330
2
100
AcDbEntity
  8
L-ZISSEN
100
AcDbLine
 10
634.1462269261849
 20
238.0000000000002
 30
0.0
 11
634.1462269261849
 21
229.0000000000001
 31
0.0
  0
SOLID
  5
1F5
330
2
100
AcDbEntity
  8
L-ZISSEN
100
AcDbTrace
 10
620.2628917990642
 20
238.9004664628717
 30
0.0
 11
619.8726505206799
 21
239.4409812074342
 31
0.0
 12
618.4462269261846
 22
238.0000000000001
 32
0.0
 13
618.4462269261846
 23
238.0000000000001
 33
0.0
  0
LINE
  5
1F6
330
2
100
AcDbEntity
  8
L-ZISSEN
100
AcDbLine
 10
646.9462269261849
 20
238.0000000000001
 30
0.0
 11
646.9462269261849
 21
229.0
 31
0.0
  0
LINE
  5
1F7
330
2
100
AcDbEntity
  8
L-ZISSEN
100
AcDbLine
 10
645.446226926185
 20
236.5000000000002
 30
0.0
 11
645.4462269261849
 21
229.0
 31
0.0
  0
TEXT
  5
1F8
330
2
100
AcDbEntity
  8
L-ZISSEN
100
AcDbText
 10
737.454474154704
 20
239.8432679826267
 30
0.0
 40
4.5
  1
P.P
100
AcDbText
  0
LINE
  5
1F9
330
2
100
AcDbEntity
  8
L-TYUSIN
100
AcDbLine
 10
661.7462269261848
 20
208.0000008234828
 30
0.0
 11
671.9462269261846
 21
208.0000008234828
 31
0.0
  0
TEXT
  5
1FA
330
2
100
AcDbEntity
  8
L-ZISSEN
100
AcDbText
 10
831.5634930995734
 20
165.0609579436943
 30
0.0
 40
4.5
  1
AC-200V
100
AcDbText
  0
TEXT
  5
1FB
330
2
100
AcDbEntity
  8
L-ZISSEN
100
AcDbText
 10
831.5634930995734
 20
149.2470759328999
 30
0.0
 40
4.5
  1
DC-100V
100
AcDbText
  0
TEXT
  5
1FC
330
2
100
AcDbEntity
  8
L-ZISSEN
100
AcDbText
 10
831.5634930995734
 20
157.2470759328999
 30
0.0
 40
4.5
  1
DC-24V
100
AcDbText
  0
TEXT
  5
1FD
330
2
100
AcDbEntity
  8
L-ZISSEN
100
AcDbText
 10
831.5634930995734
 20
173.0609579436943
 30
0.0
 40
4.5
  1
AC-100V
100
AcDbText
  0
TEXT
  5
1FE
330
2
100
AcDbEntity
  8
L-ZISSEN
100
AcDbText
 10
808.9069049291429
 20
172.619013683478
 30
0.0
 40
4.5
  1
0
100
AcDbText
  0
TEXT
  5
1FF
330
2
100
AcDbEntity
  8
L-ZISSEN
100
AcDbText
 10
809.3621714876908
 20
165.7672053283056
 30
0.0
 40
4.5
  1
1
100
AcDbText
  0
LINE
  5
200
330
2
100
AcDbEntity
  8
L-ZISSEN
100
AcDbLine
 10
877.9200962107249
 20
147.571750362794
 30
0.0
 11
877.9200962107249
 21
156.571750362794
 31
0.0
  0
LINE
  5
201
330
2
100
AcDbEntity
  8
L-ZISSEN
100
AcDbLine
 10
885.9200962107251
 20
147.571750362794
 30
0.0
 11
885.9200962107251
 21
156.571750362794
 31
0.0
  0
LINE
  5
202
330
2
100
AcDbEntity
  8
L-ZISSEN
100
AcDbLine
 10
922.1281628734691
 20
147.571750362794
 30
0.0
 11
922.1281628734691
 21
156.571750362794
 31
0.0
  0
TEXT
  5
203
330
2
100
AcDbEntity
  8
L-ZISSEN
100
AcDbText
 10
906.2155556045693
 20
127.6093933883069
 30
0.0
 40
4.5
  1
P.P
100
AcDbText
  0
LINE
  5
204
330
2
100
AcDbEntity
  8
L-ZISSEN
100
AcDbLine
 10
901.7941069179658
 20
128.483183174317
 30
0.0
 11
904.885879677104
 21
128.483183174317
 31
0.0
  0
LINE
  5
205
330
2
100
AcDbEntity
  8
L-ZISSEN
100
AcDbLine
 10
885.9200962107251
 20
156.571750362794
 30
0.0
 11
882.4200962107249
 21
156.571750362794
 31
0.0
  0
LINE
  5
206
330
2
100
AcDbEntity
  8
L-ZISSEN
100
AcDbLine
 10
882.4200962107249
 20
154.571750362794
 30
0.0
 11
881.4200962107249
 21
154.571750362794
 31
0.0
  0
LINE
  5
207
330
2
100
AcDbEntity
  8
L-ZISSEN
100
AcDbLine
 10
881.4200962107249
 20
154.571750362794
 30
0.0
 11
881.4200962107249
 21
156.571750362794
 31
0.0
  0
LINE
  5
208
330
2
100
AcDbEntity
  8
L-ZISSEN
100
AcDbLine
 10
881.4200962107249
 20
156.571750362794
 30
0.0
 11
877.9200962107249
 21
156.571750362794
 31
0.0
  0
LINE
  5
209
330
2
100
AcDbEntity
  8
L-ZISSEN
100
AcDbLine
 10
882.4200962107249
 20
154.571750362794
 30
0.0
 11
882.4200962107249
 21
156.571750362794
 31
0.0
  0
LINE
  5
20A
330
2
100
AcDbEntity
  8
L-ZISSEN
100
AcDbLine
 10
846.1168835434742
 20
276.8055644601157
 30
0.0
 11
833.7168835434742
 21
276.8055644601157
 31
0.0
  0
LINE
  5
20B
330
2
100
AcDbEntity
  8
L-ZISSEN
100
AcDbLine
 10
766.7704409814846
 20
270.3055644601158
 30
0.0
 11
766.7704409814846
 21
219.8055644601158
 31
0.0
  0
LINE
  5
20C
330
2
100
AcDbEntity
  8
L-ZISSEN
100
AcDbLine
 10
793.1704409814846
 20
270.3055644601158
 30
0.0
 11
793.1704409814847
 21
219.8055644601158
 31
0.0
  0
SOLID
  5
20D
330
2
100
AcDbEntity
  8
L-ZISSEN
100
AcDbTrace
 10
778.6409079485094
 20
221.3363985547644
 30
0.0
 11
778.216287865541
 21
220.8224508632779
 31
0.0
 12
779.9704409814847
 22
219.8055644601158
 32
0.0
 13
779.9704409814847
 23
219.8055644601158
 33
0.0
  0
LINE
  5
20E
330
2
100
AcDbEntity
  8
L-ZISSEN
100
AcDbLine
 10
793.1704409814846
 20
219.8055644601157
 30
0.0
 11
766.7704409814846
 21
219.8055644601157
 31
0.0
  0
LINE
  5
20F
330
2
100
AcDbEntity
  8
L-ZISSEN
100
AcDbLine
 10
768.5704409814847
 20
221.6055644601157
 30
0.0
 11
791.3704409814848
 21
221.6055644601157
 31
0.0
  0
LINE
  5
210
330
2
100
AcDbEntity
  8
L-ZISSEN
100
AcDbLine
 10
778.4285979070252
 20
221.0794247090212
 30
0.0
 11
752.7356908440086
 21
242.3067295680914
 31
0.0
  0
CIRCLE
  5
211
330
2
100
AcDbEntity
  8
L-ZISSEN
100
AcDbCircle
 10
786.9704409814847
 20
226.8055644601158
 30
0.0
 40
2.75
  0
CIRCLE
  5
212
330
2
100
AcDbEntity
  8
L-ZISSEN
100
AcDbCircle
 10
772.9704409814847
 20
247.8055644601158
 30
0.0
 40
2.75
  0
LINE
  5
213
330
2
100
AcDbEntity
  8
L-ZISSEN
100
AcDbLine
 10
768.5704409814847
 20
256.8055644601158
 30
0.0
 11
791.3704409814848
 21
256.8055644601158
 31
0.0
  0
LINE
  5
214
330
2
100
AcDbEntity
  8
L-ZISSEN
100
AcDbLine
 10
768.5704409814847
 20
253.0055644601157
 30
0.0
 11
791.3704409814848
 21
253.0055644601157
 31
0.0
  0
LINE
  5
215
330
2
100
AcDbEntity
  8
L-ZISSEN
100
AcDbLine
 10
768.5704409814846
 20
261.3055644601158
 30
0.0
 11
791.3704409814848
 21
261.3055644601157
 31
0.0
  0
LINE
  5
216
330
2
100
AcDbEntity
  8
L-ZISSEN
100
AcDbLine
 10
766.7704409814846
 20
255.3055644601158
 30
0.0
 11
768.5704409814846
 21
255.3055644601158
 31
0.0
  0
LINE
  5
217
330
2
100
AcDbEntity
  8
L-ZISSEN
100
AcDbLine
 10
791.3704409814848
 20
255.3055644601157
 30
0.0
 11
793.1704409814847
 21
255.3055644601158
 31
0.0
  0
LINE
  5
218
330
2
100
AcDbEntity
  8
L-ZISSEN
100
AcDbLine
 10
766.7704409814846
 20
270.3055644601158
 30
0.0
 11
768.5704409814845
 21
270.3055644601158
 31
0.0
  0
LINE
  5
219
330
2
100
AcDbEntity
  8
L-ZISSEN
100
AcDbLine
 10
791.3704409814846
 20
270.3055644601158
 30
0.0
 11
793.1704409814846
 21
270.3055644601158
 31
0.0
  0
LINE
  5
21A
330
2
100
AcDbEntity
  8
L-ZISSEN
100
AcDbLine
 10
828.9168835434742
 20
278.9055644601156
 30
0.0
 11
833.7168835434742
 21
278.9055644601156
 31
0.0
  0
LINE
  5
21B
330
2
100
AcDbEntity
  8
L-ZISSEN
100
AcDbLine
 10
823.7168835434743
 20
276.8055644601157
 30
0.0
 11
828.9168835434743
 21
276.8055644601156
 31
0.0
  0
LINE
  5
21C
330
2
100
AcDbEntity
  8
L-ZISSEN
100
AcDbLine
 10
842.4168835434742
 20
221.6055644601157
 30
0.0
 11
842.4168835434742
 21
253.0055644601156
 31
0.0
  0
LINE
  5
21D
330
2
100
AcDbEntity
  8
L-ZISSEN
100
AcDbLine
 10
848.9168835434741
 20
221.6055644601157
 30
0.0
 11
848.9168835434741
 21
253.0055644601156
 31
0.0
  0
LINE
  5
21E
330
2
100
AcDbEntity
  8
L-ZISSEN
100
AcDbLine
 10
896.9168835434741
 20
219.8055644601157
 30
0.0
 11
896.9168835434741
 21
254.8055644601157
 31
0.0
  0
LINE
  5
21F
330
2
100
AcDbEntity
  8
L-ZISSEN
100
AcDbLine
 10
885.9168835434742
 20
219.8055644601157
 30
0.0
 11
885.916883543474
 21
254.8055644601157
 31
0.0
  0
LINE
  5
220
330
2
100
AcDbEntity
  8
L-ZISSEN
100
AcDbLine
 10
842.4168835434742
 20
221.6055644601157
 30
0.0
 11
885.9168835434741
 21
221.6055644601152
 31
0.0
  0
SOLID
  5
221
330
2
100
AcDbEntity
  8
L-ZISSEN
100
AcDbTrace
 10
912.8556955448208
 20
221.6027130731244
 30
0.0
 11
912.222089940529
 21
221.8100494728579
 31
0.0
 12
911.9168835434743
 22
219.8055644601157
 32
0.0
 13
911.9168835434743
 23
219.8055644601157
 33
0.0
  0
LINE
  5
222
330
2
100
AcDbEntity
  8
L-ZISSEN
100
AcDbLine
 10
874.9168835434741
 20
253.0055644601157
 30
0.0
 11
885.9168835434741
 21
253.0055644601157
 31
0.0
  0
LINE
  5
223
330
2
100
AcDbEntity
  8
L-ZISSEN
100
AcDbLine
 10
845.9168835434741
 20
261.3055644601156
 30
0.0
 11
874.9168835434741
 21
261.3055644601158
 31
0.0
  0
LINE
  5
224
330
2
100
AcDbEntity
  8
L-ZISSEN
100
AcDbLine
 10
842.4168835434742
 20
253.0055644601156
 30
0.0
 11
848.9168835434741
 21
253.0055644601156
 31
0.0
  0
LINE
  5
225
330
2
100
AcDbEntity
  8
L-ZISSEN
100
AcDbLine
 10
883.316883543474
 20
253.3055644601157
 30
0.0
 11
883.316883543474
 21
253.0055644601157
 31
0.0
  0
LINE
  5
226
330
2
100
AcDbEntity
  8
L-ZISSEN
100
AcDbLine
 10
878.1168835434742
 20
253.3055644601157
 30
0.0
 11
878.1168835434742
 21
253.0055644601157
 31
0.0
  0
LINE
  5
227
330
2
100
AcDbEntity
  8
L-ZISSEN
100
AcDbLine
 10
878.1168835434742
 20
253.3055644601157
 30
0.0
 11
883.316883543474
 21
253.3055644601157
 31
0.0
  0
LINE
  5
228
330
2
100
AcDbEntity
  8
L-ZISSEN
100
AcDbLine
 10
897.4168835434742
 20
270.3055644601157
 30
0.0
 11
897.4168835434743
 21
254.8055644601157
 31
0.0
  0
CIRCLE
  5
229
330
2
100
AcDbEntity
  8
L-ZISSEN
100
AcDbCircle
 10
916.9168835434742
 20
262.8055644601157
 30
0.0
 40
4.1
  0
LINE
  5
22A
330
2
100
AcDbEntity
  8
L-ZISSEN
100
AcDbLine
 10
920.4168835434742
 20
275.3055644601157
 30
0.0
 11
913.4168835434741
 21
275.3055644601157
 31
0.0
  0
LINE
  5
22B
330
2
100
AcDbEntity
  8
L-ZISSEN
100
AcDbLine
 10
913.4168835434741
 20
270.3055644601157
 30
0.0
 11
913.4168835434741
 21
275.3055644601157
 31
0.0
  0
LINE
  5
22C
330
2
100
AcDbEntity
  8
L-ZISSEN
100
AcDbLine
 10
920.4168835434741
 20
270.3055644601157
 30
0.0
 11
920.4168835434742
 21
275.3055644601157
 31
0.0
  0
LINE
  5
22D
330
2
100
AcDbEntity
  8
L-ZISSEN
100
AcDbLine
 10
923.4168835434741
 20
270.3055644601157
 30
0.0
 11
923.4168835434741
 21
275.3055644601157
 31
0.0
  0
LINE
  5
22E
330
2
100
AcDbEntity
  8
L-ZISSEN
100
AcDbLine
 10
930.1281628734691
 20
147.571750362794
 30
0.0
 11
930.1281628734691
 21
156.571750362794
 31
0.0
  0
TEXT
  5
22F
330
2
100
AcDbEntity
  8
L-ZISSEN
100
AcDbText
 10
948.2236222673133
 20
127.6093933883063
 30
0.0
 40
4.5
  1
P.P
100
AcDbText
  0
LINE
  5
230
330
2
100
AcDbEntity
  8
L-ZISSEN
100
AcDbLine
 10
943.8021735807098
 20
128.4831831743164
 30
0.0
 11
946.893946339848
 21
128.4831831743164
 31
0.0
  0
LINE
  5
231
330
2
100
AcDbEntity
  8
L-ZISSEN
100
AcDbLine
 10
1020.116883543474
 20
276.8055644601156
 30
0.0
 11
1014.916883543474
 21
276.8055644601156
 31
0.0
  0
LINE
  5
232
330
2
100
AcDbEntity
  8
L-ZISSEN
100
AcDbLine
 10
994.9168835434741
 20
221.6055644601157
 30
0.0
 11
994.9168835434741
 21
253.0055644601156
 31
0.0
  0
LINE
  5
233
330
2
100
AcDbEntity
  8
L-ZISSEN
100
AcDbLine
 10
1001.416883543474
 20
221.6055644601158
 30
0.0
 11
1001.416883543474
 21
253.0055644601156
 31
0.0
  0
LINE
  5
234
330
2
100
AcDbEntity
  8
L-ZISSEN
100
AcDbLine
 10
957.9168835434742
 20
220.4889188058839
 30
0.0
 11
957.9168835434742
 21
254.1222101143474
 31
0.0
  0
LINE
  5
235
330
2
100
AcDbEntity
  8
L-ZISSEN
100
AcDbLine
 10
957.9168835434741
 20
219.8055644601157
 30
0.0
 11
957.9168835434743
 21
254.8055644601156
 31
0.0
  0
LINE
  5
236
330
2
100
AcDbEntity
  8
L-ZISSEN
100
AcDbLine
 10
946.9168835434742
 20
219.8055644601157
 30
0.0
 11
946.9168835434742
 21
254.8055644601157
 31
0.0
  0
LINE
  5
237
330
2
100
AcDbEntity
  8
L-ZISSEN
100
AcDbLine
 10
1001.416883543474
 20
221.6055644601158
 30
0.0
 11
957.9168835434742
 21
221.605564460115
 31
0.0
  0
LINE
  5
238
330
2
100
AcDbEntity
  8
L-ZISSEN
100
AcDbLine
 10
997.9168835434741
 20
261.3055644601156
 30
0.0
 11
968.9168835434743
 21
261.3055644601158
 31
0.0
  0
LINE
  5
239
330
2
100
AcDbEntity
  8
L-ZISSEN
100
AcDbLine
 10
946.4168835434742
 20
270.3055644601157
 30
0.0
 11
946.4168835434742
 21
254.8055644601157
 31
0.0
  0
LINE
  5
23A
330
2
100
AcDbEntity
  8
L-ZISSEN
100
AcDbLine
 10
965.7168835434743
 20
253.3055644601157
 30
0.0
 11
960.5168835434743
 21
253.3055644601157
 31
0.0
  0
LINE
  5
23B
330
2
100
AcDbEntity
  8
L-ZISSEN
100
AcDbLine
 10
968.9168835434743
 20
253.0055644601157
 30
0.0
 11
957.9168835434743
 21
253.0055644601157
 31
0.0
  0
LINE
  5
23C
330
2
100
AcDbEntity
  8
L-ZISSEN
100
AcDbLine
 10
960.5168835434743
 20
253.3055644601157
 30
0.0
 11
960.5168835434743
 21
253.0055644601157
 31
0.0
  0
LINE
  5
23D
330
2
100
AcDbEntity
  8
L-ZISSEN
100
AcDbLine
 10
965.7168835434743
 20
253.3055644601157
 30
0.0
 11
965.7168835434743
 21
253.0055644601157
 31
0.0
  0
LINE
  5
23E
330
2
100
AcDbEntity
  8
L-ZISSEN
100
AcDbLine
 10
930.4168835434743
 20
270.3055644601157
 30
0.0
 11
930.4168835434743
 21
275.3055644601157
 31
0.0
  0
LINE
  5
23F
330
2
100
AcDbEntity
  8
L-ZISSEN
100
AcDbLine
 10
1001.416883543474
 20
253.0055644601156
 30
0.0
 11
994.9168835434741
 21
253.0055644601156
 31
0.0
  0
LINE
  5
240
330
2
100
AcDbEntity
  8
L-ZISSEN
100
AcDbLine
 10
997.9168835434741
 20
276.8055644601157
 30
0.0
 11
1010.116883543474
 21
276.8055644601157
 31
0.0
  0
LINE
  5
241
330
2
100
AcDbEntity
  8
L-ZISSEN
100
AcDbLine
 10
1014.916883543474
 20
278.9055644601156
 30
0.0
 11
1010.116883543474
 21
278.9055644601156
 31
0.0
  0
LINE
  5
242
330
2
100
AcDbEntity
  8
L-ZISSEN
100
AcDbLine
 10
1097.152410717034
 20
270.3055644601158
 30
0.0
 11
1097.152410717034
 21
219.8055644601158
 31
0.0
  0
LINE
  5
243
330
2
100
AcDbEntity
  8
L-ZISSEN
100
AcDbLine
 10
1070.752410717034
 20
270.3055644601158
 30
0.0
 11
1070.752410717034
 21
219.8055644601158
 31
0.0
  0
TEXT
  5
244
330
2
100
AcDbEntity
  8
L-ZISSEN
100
AcDbText
 10
1047.521148728977
 20
238.851443091841
 30
0.0
 40
4.5
  1
P.P
100
AcDbText
  0
LINE
  5
245
330
2
100
AcDbEntity
  8
L-ZISSEN
100
AcDbLine
 10
1082.492920474984
 20
221.1730030266921
 30
0.0
 11
1062.073218523968
 21
240.3048116276096
 31
0.0
  0
LINE
  5
246
330
2
100
AcDbEntity
  8
L-ZISSEN
100
AcDbLine
 10
1062.073218523968
 20
240.3048116276096
 30
0.0
 11
1058.144160627216
 21
240.3048116276095
 31
0.0
  0
SOLID
  5
247
330
2
100
AcDbEntity
  8
L-ZISSEN
100
AcDbTrace
 10
1082.720826902746
 20
221.4162514003671
 30
0.0
 11
1082.265014047221
 21
220.9297546530171
 31
0.0
 12
1083.952410717034
 22
219.8055644601158
 32
0.0
 13
1083.952410717034
 23
219.8055644601158
 33
0.0
  0
LINE
  5
248
330
2
100
AcDbEntity
  8
L-ZISSEN
100
AcDbLine
 10
1097.152410717034
 20
219.8055644601157
 30
0.0
 11
1070.752410717034
 21
219.8055644601157
 31
0.0
  0
LINE
  5
249
330
2
100
AcDbEntity
  8
L-ZISSEN
100
AcDbLine
 10
1072.552410717034
 20
221.6055644601157
 30
0.0
 11
1095.352410717034
 21
221.6055644601157
 31
0.0
  0
CIRCLE
  5
24A
330
2
100
AcDbEntity
  8
L-ZISSEN
100
AcDbCircle
 10
1090.952410717034
 20
226.8055644601158
 30
0.0
 40
2.75
  0
LINE
  5
24B
330
2
100
AcDbEntity
  8
L-ZISSEN
100
AcDbLine
 10
1072.552410717034
 20
256.8055644601158
 30
0.0
 11
1095.352410717034
 21
256.8055644601158
 31
0.0
  0
LINE
  5
24C
330
2
100
AcDbEntity
  8
L-ZISSEN
100
AcDbLine
 10
1072.552410717034
 20
253.0055644601157
 30
0.0
 11
1095.352410717034
 21
253.0055644601157
 31
0.0
  0
LINE
  5
24D
330
2
100
AcDbEntity
  8
L-ZISSEN
100
AcDbLine
 10
1072.552410717034
 20
261.3055644601158
 30
0.0
 11
1095.352410717034
 21
261.3055644601157
 31
0.0
  0
CIRCLE
  5
24E
330
2
100
AcDbEntity
  8
L-ZISSEN
100
AcDbCircle
 10
1076.952410717034
 20
247.8055644601158
 30
0.0
 40
2.75
  0
LINE
  5
24F
330
2
100
AcDbEntity
  8
L-ZISSEN
100
AcDbLine
 10
1070.752410717034
 20
255.3055644601158
 30
0.0
 11
1072.552410717034
 21
255.3055644601158
 31
0.0
  0
LINE
  5
250
330
2
100
AcDbEntity
  8
L-ZISSEN
100
AcDbLine
 10
1095.352410717034
 20
255.3055644601157
 30
0.0
 11
1097.152410717034
 21
255.3055644601158
 31
0.0
  0
LINE
  5
251
330
2
100
AcDbEntity
  8
L-ZISSEN
100
AcDbLine
 10
1070.752410717034
 20
270.3055644601158
 30
0.0
 11
1072.552410717034
 21
270.3055644601158
 31
0.0
  0
LINE
  5
252
330
2
100
AcDbEntity
  8
L-ZISSEN
100
AcDbLine
 10
1095.352410717034
 20
270.3055644601158
 30
0.0
 11
1097.152410717034
 21
270.3055644601158
 31
0.0
  0
LINE
  5
253
330
2
100
AcDbEntity
  8
L-ZISSEN
100
AcDbLine
 10
624.9462269261853
 20
245.6000000000001
 30
5.0
 11
624.9462269261853
 21
242.0000000000002
 31
5.0
  0
LINE
  5
254
330
2
100
AcDbEntity
  8
L-ZISSEN
100
AcDbLine
 10
631.9462269261853
 20
245.6000000000001
 30
5.0
 11
631.9462269261853
 21
242.0000000000002
 31
5.0
  0
LINE
  5
255
330
2
100
AcDbEntity
  8
L-ZISSEN
100
AcDbLine
 10
611.9462269261855
 20
245.6000000000001
 30
5.0
 11
611.9462269261855
 21
242.0000000000002
 31
5.0
  0
LINE
  5
256
330
2
100
AcDbEntity
  8
L-ZISSEN
100
AcDbLine
 10
604.9462269261853
 20
245.6000000000001
 30
5.0
 11
604.9462269261853
 21
242.0000000000002
 31
5.0
  0
LINE
  5
257
330
2
100
AcDbEntity
  8
L-ZISSEN
100
AcDbLine
 10
623.4462269261853
 20
259.7087121525223
 30
5.0
 11
623.4462269261853
 21
242.0000000000001
 31
5.0
  0
LINE
  5
258
330
2
100
AcDbEntity
  8
L-ZISSEN
100
AcDbLine
 10
613.4462269261853
 20
259.7087121525223
 30
5.0
 11
613.4462269261853
 21
242.0000000000001
 31
5.0
  0
LINE
  5
259
330
2
100
AcDbEntity
  8
L-ZISSEN
100
AcDbLine
 10
602.4462269261853
 20
286.0
 30
5.0
 11
602.4462269261853
 21
238.0000000000001
 31
5.0
  0
LINE
  5
25A
330
2
100
AcDbEntity
  8
L-ZISSEN
100
AcDbLine
 10
634.4462269261853
 20
286.0000000000001
 30
5.0
 11
634.4462269261852
 21
238.0000000000001
 31
5.0
  0
LINE
  5
25B
330
2
100
AcDbEntity
  8
L-ZISSEN
100
AcDbLine
 10
634.4462269261853
 20
242.0000000000001
 30
5.0
 11
602.4462269261853
 21
242.0000000000001
 31
5.0
  0
LINE
  5
25C
330
2
100
AcDbEntity
  8
L-ZISSEN
  6
Continuous
100
AcDbLine
 10
614.4462269261853
 20
286.5
 30
5.0
 11
622.4462269261853
 21
286.5
 31
5.0
  0
CIRCLE
  5
25D
330
2
100
AcDbEntity
  8
L-ZISSEN
100
AcDbCircle
 10
618.4462269261853
 20
262.0000000000001
 30
5.0
 40
5.5
  0
LINE
  5
25E
330
2
100
AcDbEntity
  8
L-ZISSEN
100
AcDbLine
 10
634.4462269261853
 20
286.0000000000002
 30
5.0
 11
602.4462269261853
 21
286.0
 31
5.0
  0
LINE
  5
25F
330
2
100
AcDbEntity
  8
L-ZISSEN
100
AcDbLine
 10
613.4462269261853
 20
272.9544511501034
 30
5.0
 11
613.4462269261853
 21
264.2912878474779
 31
5.0
  0
LINE
  5
260
330
2
100
AcDbEntity
  8
L-ZISSEN
100
AcDbLine
 10
596.9462269261851
 20
245.9999999999999
 30
5.0
 11
596.9462269261851
 21
278.0
 31
5.0
  0
LINE
  5
261
330
2
100
AcDbEntity
  8
L-ZISSEN
100
AcDbLine
 10
588.9462269261851
 20
245.9999999999999
 30
5.0
 11
588.9462269261851
 21
277.9999999999999
 31
5.0
  0
ARC
  5
262
330
2
100
AcDbEntity
  8
L-ZISSEN
100
AcDbCircle
 10
618.4462269261853
 20
262.0000000000001
 30
5.0
 40
14.0
100
AcDbArc
 50
142.1612569532469
 51
249.0751675723617
  0
LINE
  5
263
330
2
100
AcDbEntity
  8
L-ZISSEN
100
AcDbLine
 10
604.9462269261853
 20
245.6000000000001
 30
5.0
 11
611.9462269261855
 21
245.6000000000001
 31
5.0
  0
ARC
  5
264
330
2
100
AcDbEntity
  8
L-ZISSEN
100
AcDbCircle
 10
608.4462269261853
 20
274.5000000000001
 30
5.0
 40
4.0
100
AcDbArc
 50
90.0
 51
250.83788989911
  0
LINE
  5
265
330
2
100
AcDbEntity
  8
L-ZISSEN
100
AcDbLine
 10
611.4462269261853
 20
286.0000000000001
 30
5.0
 11
611.4462269261853
 21
272.9544511501034
 31
5.0
  0
ARC
  5
266
330
2
100
AcDbEntity
  8
L-ZISSEN
100
AcDbCircle
 10
606.8050166487769
 20
269.7770317780734
 30
5.0
 40
1.0
100
AcDbArc
 50
54.20797005091778
 51
70.83788989910661
  0
LINE
  5
267
330
2
100
AcDbEntity
  8
L-ZISSEN
100
AcDbLine
 10
611.4462269261853
 20
272.9544511501034
 30
5.0
 11
613.4462269261853
 21
272.9544511501034
 31
5.0
  0
LINE
  5
268
330
2
100
AcDbEntity
  8
L-ZISSEN
100
AcDbLine
 10
614.4462269261853
 20
286.0000000000001
 30
5.0
 11
614.4462269261853
 21
286.5
 31
5.0
  0
LINE
  5
269
330
2
100
AcDbEntity
  8
L-ZISSEN
  6
Continuous
100
AcDbLine
 10
608.4462269261853
 20
278.5000000000001
 30
5.0
 11
611.4462269261853
 21
278.5000000000001
 31
5.0
  0
LINE
  5
26A
330
2
100
AcDbEntity
  8
L-ZISSEN
100
AcDbLine
 10
639.9462269261855
 20
245.9999999999999
 30
5.0
 11
639.9462269261853
 21
277.9999999999999
 31
5.0
  0
LINE
  5
26B
330
2
100
AcDbEntity
  8
L-ZISSEN
100
AcDbLine
 10
623.4462269261853
 20
272.9544511501035
 30
5.0
 11
623.4462269261853
 21
264.2912878474779
 31
5.0
  0
ARC
  5
26C
330
2
100
AcDbEntity
  8
L-ZISSEN
100
AcDbCircle
 10
618.4462269261853
 20
262.0000000000001
 30
5.0
 40
14.0
100
AcDbArc
 50
322.1612569532467
 51
59.99999999999999
  0
LINE
  5
26D
330
2
100
AcDbEntity
  8
L-ZISSEN
100
AcDbLine
 10
634.4462269261853
 20
245.9999999999999
 30
5.0
 11
639.9462269261855
 21
245.9999999999999
 31
5.0
  0
LINE
  5
26E
330
2
100
AcDbEntity
  8
L-ZISSEN
100
AcDbLine
 10
624.9462269261853
 20
245.6000000000001
 30
5.0
 11
631.9462269261853
 21
245.6000000000001
 31
5.0
  0
ARC
  5
26F
330
2
100
AcDbEntity
  8
L-ZISSEN
100
AcDbCircle
 10
630.0874372035937
 20
254.2229682219268
 30
5.0
 40
1.0
100
AcDbArc
 50
234.2079700509151
 51
250.8378898991066
  0
ARC
  5
270
330
2
100
AcDbEntity
  8
L-ZISSEN
100
AcDbCircle
 10
628.4462269261853
 20
249.5000000000001
 30
5.0
 40
4.0
100
AcDbArc
 50
282.8385681409811
 51
70.83788989910995
  0
LINE
  5
271
330
2
100
AcDbEntity
  8
L-ZISSEN
100
AcDbLine
 10
634.4462269261853
 20
277.9999999999999
 30
5.0
 11
639.9462269261853
 21
277.9999999999999
 31
5.0
  0
LINE
  5
272
330
2
100
AcDbEntity
  8
L-ZISSEN
100
AcDbLine
 10
625.4462269261853
 20
286.0000000000001
 30
5.0
 11
625.4462269261853
 21
272.9544511501034
 31
5.0
  0
LINE
  5
273
330
2
100
AcDbEntity
  8
L-ZISSEN
100
AcDbLine
 10
625.4462269261853
 20
272.9544511501034
 30
5.0
 11
623.4462269261853
 21
272.9544511501035
 31
5.0
  0
LINE
  5
274
330
2
100
AcDbEntity
  8
L-ZISSEN
100
AcDbLine
 10
622.4462269261853
 20
286.0000000000001
 30
5.0
 11
622.4462269261853
 21
286.5
 31
5.0
  0
LINE
  5
275
330
2
100
AcDbEntity
  8
L-ZISSEN
100
AcDbLine
 10
768.5704409814848
 20
453.0055644601161
 30
0.0
 11
768.5704409814848
 21
493.0055644601156
 31
0.0
  0
LINE
  5
276
330
2
100
AcDbEntity
  8
L-ZISSEN
100
AcDbLine
 10
791.3704409814848
 20
453.0055644601161
 30
0.0
 11
791.3704409814848
 21
493.0055644601162
 31
0.0
  0
TEXT
  5
277
330
2
100
AcDbEntity
  8
L-ZISSEN
100
AcDbText
 10
740.4190848747905
 20
429.8511875179656
 30
0.0
 40
4.5
  1
P.P
100
AcDbText
  0
LINE
  5
278
330
2
100
AcDbEntity
  8
L-ZISSEN
100
AcDbLine
 10
768.5704409814848
 20
381.005564460116
 30
0.0
 11
768.5704409814848
 21
341.005564460116
 31
0.0
  0
LINE
  5
279
330
2
100
AcDbEntity
  8
L-ZISSEN
100
AcDbLine
 10
791.3704409814848
 20
381.005564460116
 30
0.0
 11
791.3704409814848
 21
341.005564460116
 31
0.0
  0
CIRCLE
  5
27A
330
2
100
AcDbEntity
  8
L-ZISSEN
100
AcDbCircle
 10
779.9704409814848
 20
375.8055644601161
 30
0.0
 40
2.6
  0
LINE
  5
27B
330
2
100
AcDbEntity
  8
L-ZISSEN
100
AcDbLine
 10
874.9168835434741
 20
294.8055644601157
 30
0.0
 11
833.7168835434742
 21
294.8055644601157
 31
0.0
  0
LINE
  5
27C
330
2
100
AcDbEntity
  8
L-ZISSEN
100
AcDbLine
 10
770.9704409814848
 20
341.005564460116
 30
0.0
 11
770.9704409814848
 21
328.8055644601161
 31
0.0
  0
LINE
  5
27D
330
2
100
AcDbEntity
  8
L-ZISSEN
100
AcDbLine
 10
788.9704409814847
 20
341.005564460116
 30
0.0
 11
788.9704409814848
 21
328.805564460116
 31
0.0
  0
LINE
  5
27E
330
2
100
AcDbEntity
  8
L-ZISSEN
100
AcDbLine
 10
768.5704409814846
 20
294.8055644601158
 30
0.0
 11
791.3704409814846
 21
294.8055644601158
 31
0.0
  0
LINE
  5
27F
330
2
100
AcDbEntity
  8
L-ZISSEN
100
AcDbLine
 10
771.9704409814848
 20
324.0055644601161
 30
0.0
 11
787.9704409814848
 21
324.0055644601161
 31
0.0
  0
LINE
  5
280
330
2
100
AcDbEntity
  8
L-ZISSEN
100
AcDbLine
 10
788.9704409814848
 20
328.805564460116
 30
0.0
 11
770.9704409814848
 21
328.8055644601161
 31
0.0
  0
LINE
  5
281
330
2
100
AcDbEntity
  8
L-ZISSEN
100
AcDbLine
 10
771.970440981485
 20
318.8055644601161
 30
0.0
 11
787.9704409814846
 21
318.8055644601161
 31
0.0
  0
LINE
  5
282
330
2
100
AcDbEntity
  8
L-ZISSEN
100
AcDbLine
 10
771.9704409814848
 20
324.0055644601161
 30
0.0
 11
771.9704409814848
 21
318.8055644601162
 31
0.0
  0
LINE
  5
283
330
2
100
AcDbEntity
  8
L-ZISSEN
100
AcDbLine
 10
773.0704409814847
 20
324.0055644601161
 30
0.0
 11
773.0704409814847
 21
328.8055644601161
 31
0.0
  0
LINE
  5
284
330
2
100
AcDbEntity
  8
L-ZISSEN
100
AcDbLine
 10
787.9704409814848
 20
324.0055644601161
 30
0.0
 11
787.9704409814848
 21
318.8055644601162
 31
0.0
  0
LINE
  5
285
330
2
100
AcDbEntity
  8
L-ZISSEN
100
AcDbLine
 10
786.8704409814849
 20
324.0055644601161
 30
0.0
 11
786.8704409814849
 21
328.8055644601161
 31
0.0
  0
LINE
  5
286
330
2
100
AcDbEntity
  8
L-ZISSEN
100
AcDbLine
 10
828.9168835434742
 20
292.7055644601157
 30
0.0
 11
833.7168835434742
 21
292.7055644601157
 31
0.0
  0
LINE
  5
287
330
2
100
AcDbEntity
  8
L-ZISSEN
100
AcDbLine
 10
823.7168835434743
 20
294.8055644601157
 30
0.0
 11
828.9168835434742
 21
294.8055644601158
 31
0.0
  0
CIRCLE
  5
288
330
2
100
AcDbEntity
  8
L-ZISSEN
100
AcDbCircle
 10
779.9704409814848
 20
355.505564460116
 30
0.0
 40
3.5
  0
LINE
  5
289
330
2
100
AcDbEntity
  8
L-ZISSEN
100
AcDbLine
 10
768.5704409814848
 20
341.005564460116
 30
0.0
 11
791.3704409814848
 21
341.005564460116
 31
0.0
  0
LINE
  5
28A
330
2
100
AcDbEntity
  8
L-ZISSEN
100
AcDbLine
 10
791.3704409814848
 20
370.005564460116
 30
0.0
 11
768.5704409814848
 21
370.005564460116
 31
0.0
  0
LINE
  5
28B
330
2
100
AcDbEntity
  8
L-ZISSEN
100
AcDbLine
 10
778.6528160134351
 20
413.5101788437944
 30
0.0
 11
761.6854900040717
 21
432.8854057750453
 31
0.0
  0
LINE
  5
28C
330
2
100
AcDbEntity
  8
L-ZISSEN
100
AcDbLine
 10
766.7704409814847
 20
413.4233091479917
 30
0.0
 11
766.7704409814847
 21
453.0055644601161
 31
0.0
  0
CIRCLE
  5
28D
330
2
100
AcDbEntity
  8
L-ZISSEN
100
AcDbCircle
 10
789.9704409814848
 20
422.005564460116
 30
0.0
 40
3.5
  0
LINE
  5
28E
330
2
100
AcDbEntity
  8
L-ZISSEN
100
AcDbLine
 10
793.1704409814848
 20
381.005564460116
 30
0.0
 11
793.1704409814848
 21
420.5878197722404
 31
0.0
  0
LINE
  5
28F
330
2
100
AcDbEntity
  8
L-ZISSEN
100
AcDbLine
 10
766.7704409814847
 20
381.005564460116
 30
0.0
 11
766.7704409814847
 21
410.5878197722404
 31
0.0
  0
LINE
  5
290
330
2
100
AcDbEntity
  8
L-ZISSEN
100
AcDbLine
 10
793.1704409814848
 20
392.5055644601161
 30
0.0
 11
766.7704409814847
 21
392.505564460116
 31
0.0
  0
LINE
  5
291
330
2
100
AcDbEntity
  8
L-ZISSEN
100
AcDbLine
 10
793.1704409814848
 20
381.005564460116
 30
0.0
 11
766.7704409814847
 21
381.005564460116
 31
0.0
  0
ARC
  5
292
330
2
100
AcDbEntity
  8
L-ZISSEN
100
AcDbCircle
 10
795.7204409814848
 20
394.255564460116
 30
0.0
 40
5.5
100
AcDbArc
 50
115.6792886194568
 51
117.6220054921675
  0
CIRCLE
  5
293
330
2
100
AcDbEntity
  8
L-ZISSEN
100
AcDbCircle
 10
769.9704409814848
 20
412.005564460116
 30
0.0
 40
3.5
  0
SOLID
  5
294
330
2
100
AcDbEntity
  8
L-ZISSEN
100
AcDbTrace
 10
778.9035850773814
 20
413.7297830051361
 30
0.0
 11
778.4020469494886
 21
413.2905746824528
 31
0.0
 12
779.9704409814849
 22
412.0055644601161
 32
0.0
 13
779.9704409814849
 23
412.0055644601161
 33
0.0
  0
LINE
  5
295
330
2
100
AcDbEntity
  8
L-ZISSEN
100
AcDbLine
 10
793.1704409814848
 20
423.4233091479917
 30
0.0
 11
793.170440981485
 21
453.0055644601161
 31
0.0
  0
LINE
  5
296
330
2
100
AcDbEntity
  8
L-ZISSEN
100
AcDbLine
 10
793.1704409814848
 20
441.505564460116
 30
0.0
 11
766.7704409814847
 21
441.505564460116
 31
0.0
  0
LINE
  5
297
330
2
100
AcDbEntity
  8
L-ZISSEN
100
AcDbLine
 10
761.6854900040717
 20
432.8854057750453
 30
0.0
 11
756.9596216268249
 21
432.8854057750452
 31
0.0
  0
LINE
  5
298
330
2
100
AcDbEntity
  8
L-ZISSEN
100
AcDbLine
 10
791.3704409814848
 20
464.005564460116
 30
0.0
 11
768.5704409814848
 21
464.005564460116
 31
0.0
  0
LINE
  5
299
330
2
100
AcDbEntity
  8
L-ZISSEN
100
AcDbLine
 10
793.170440981485
 20
453.0055644601161
 30
0.0
 11
766.7704409814847
 21
453.0055644601161
 31
0.0
  0
CIRCLE
  5
29A
330
2
100
AcDbEntity
  8
L-ZISSEN
100
AcDbCircle
 10
779.9704409814848
 20
458.2055644601161
 30
0.0
 40
2.6
  0
LINE
  5
29B
330
2
100
AcDbEntity
  8
L-ZISSEN
100
AcDbLine
 10
784.1704409814848
 20
458.2055644601161
 30
0.0
 11
775.7704409814847
 21
458.2055644601161
 31
0.0
  0
TEXT
  5
29C
330
2
100
AcDbEntity
  8
L-ZISSEN
100
AcDbText
 10
826.171675087181
 20
509.605438840324
 30
0.0
 40
4.5
  1
PILOT VALVE
100
AcDbText
  0
TEXT
  5
29D
330
2
100
AcDbEntity
  8
L-ZISSEN
100
AcDbText
 10
826.171675087181
 20
496.1547880192738
 30
0.0
 40
4.5
  1
MODEL NO. : 268-*01-2*B*
100
AcDbText
  0
LINE
  5
29E
330
2
100
AcDbEntity
  8
L-ZISSEN
100
AcDbLine
 10
771.9704409814848
 20
510.0055644601161
 30
0.0
 11
771.9704409814848
 21
515.205564460116
 31
0.0
  0
LINE
  5
29F
330
2
100
AcDbEntity
  8
L-ZISSEN
100
AcDbLine
 10
787.9704409814848
 20
510.0055644601161
 30
0.0
 11
787.9704409814848
 21
515.205564460116
 31
0.0
  0
CIRCLE
  5
2A0
330
2
100
AcDbEntity
  8
L-ZISSEN
100
AcDbCircle
 10
779.9704409814848
 20
478.5055644601161
 30
0.0
 40
3.5
  0
LINE
  5
2A1
330
2
100
AcDbEntity
  8
L-ZISSEN
100
AcDbLine
 10
788.9704409814848
 20
505.2055644601161
 30
0.0
 11
770.9704409814848
 21
505.2055644601161
 31
0.0
  0
LINE
  5
2A2
330
2
100
AcDbEntity
  8
L-ZISSEN
100
AcDbLine
 10
771.9704409814848
 20
510.0055644601161
 30
0.0
 11
787.9704409814848
 21
510.0055644601161
 31
0.0
  0
LINE
  5
2A3
330
2
100
AcDbEntity
  8
L-ZISSEN
100
AcDbLine
 10
791.3704409814848
 20
493.0055644601162
 30
0.0
 11
768.5704409814848
 21
493.0055644601156
 31
0.0
  0
LINE
  5
2A4
330
2
100
AcDbEntity
  8
L-ZISSEN
100
AcDbLine
 10
770.9704409814849
 20
493.0055644601157
 30
0.0
 11
770.9704409814848
 21
505.2055644601161
 31
0.0
  0
LINE
  5
2A5
330
2
100
AcDbEntity
  8
L-ZISSEN
100
AcDbLine
 10
773.0704409814847
 20
510.0055644601161
 30
0.0
 11
773.0704409814847
 21
505.2055644601161
 31
0.0
  0
LINE
  5
2A6
330
2
100
AcDbEntity
  8
L-ZISSEN
100
AcDbLine
 10
788.9704409814848
 20
493.0055644601162
 30
0.0
 11
788.9704409814848
 21
505.2055644601161
 31
0.0
  0
LINE
  5
2A7
330
2
100
AcDbEntity
  8
L-ZISSEN
100
AcDbLine
 10
786.8704409814849
 20
510.0055644601161
 30
0.0
 11
786.8704409814849
 21
505.2055644601161
 31
0.0
  0
LINE
  5
2A8
330
2
100
AcDbEntity
  8
L-ZISSEN
100
AcDbLine
 10
771.970440981485
 20
515.205564460116
 30
0.0
 11
787.9704409814846
 21
515.205564460116
 31
0.0
  0
LINE
  5
2A9
330
2
100
AcDbEntity
  8
L-ZISSEN
100
AcDbLine
 10
1020.116883543474
 20
294.8055644601158
 30
0.0
 11
1014.916883543474
 21
294.8055644601158
 31
0.0
  0
LINE
  5
2AA
330
2
100
AcDbEntity
  8
L-ZISSEN
100
AcDbLine
 10
968.9168835434743
 20
294.8055644601157
 30
0.0
 11
1010.116883543474
 21
294.8055644601157
 31
0.0
  0
TEXT
  5
2AB
330
2
100
AcDbEntity
  8
L-ZISSEN
100
AcDbText
 10
945.0823470549348
 20
302.5469504567204
 30
0.0
 40
4.5
  1
P.P
100
AcDbText
  0
LINE
  5
2AC
330
2
100
AcDbEntity
  8
L-ZISSEN
100
AcDbLine
 10
939.7864856405853
 20
304.9731283842868
 30
0.0
 11
944.2118637295874
 21
304.9731283842868
 31
0.0
  0
LINE
  5
2AD
330
2
100
AcDbEntity
  8
L-ZISSEN
100
AcDbLine
 10
1014.916883543474
 20
292.7055644601157
 30
0.0
 11
1010.116883543474
 21
292.7055644601157
 31
0.0
  0
LINE
  5
2AE
330
2
100
AcDbEntity
  8
L-ZISSEN
100
AcDbLine
 10
1072.552410717034
 20
294.8055644601158
 30
0.0
 11
1095.352410717034
 21
294.8055644601158
 31
0.0
  0
TEXT
  5
2AF
330
2
100
AcDbEntity
  8
L-ZISSEN
100
AcDbText
 10
931.171675087181
 20
484.3409060084794
 30
0.0
 40
4.5
  1
DC-24V
100
AcDbText
  0
TEXT
  5
2B0
330
2
100
AcDbEntity
  8
L-ZISSEN
100
AcDbText
 10
931.171675087181
 20
476.3409060084794
 30
0.0
 40
4.5
  1
DC-100V
100
AcDbText
  0
TEXT
  5
2B1
330
2
100
AcDbEntity
  8
L-ZISSEN
100
AcDbText
 10
931.171675087181
 20
492.1547880192738
 30
0.0
 40
4.5
  1
AC-200V
100
AcDbText
  0
TEXT
  5
2B2
330
2
100
AcDbEntity
  8
L-ZISSEN
100
AcDbText
 10
931.171675087181
 20
500.1547880192738
 30
0.0
 40
4.5
  1
AC-100V
100
AcDbText
  0
ENDSEC
  0
SECTION
  2
OBJECTS
  0
DICTIONARY
  5
1A
330
0
100
AcDbDictionary
281
     1
  3
ACAD_DETAILVIEWSTYLE
350
354
  3
ACAD_GROUP
350
18
  3
ACAD_IMAGE_VARS
350
32F
  3
ACAD_LAYOUT
350
322
  3
ACAD_MLINESTYLE
350
19
  3
ACAD_PLOTSETTINGS
350
2FD
  3
ACAD_PLOTSTYLENAME
350
2FE
  3
ACAD_SCALELIST
350
300
  3
ACAD_SECTIONVIEWSTYLE
350
355
  3
AcDbVariableDictionary
350
34F
  3
APPDATA
350
32D
  3
DWGPROPS
350
392
  0
DICTIONARY
  5
354
102
{ACAD_REACTORS
330
1A
102
}
330
1A
100
AcDbDictionary
281
     1
  0
DICTIONARY
  5
18
102
{ACAD_REACTORS
330
1A
102
}
330
1A
100
AcDbDictionary
281
     1
  0
RASTERVARIABLES
  5
32F
102
{ACAD_REACTORS
330
1A
102
}
330
1A
100
AcDbRasterVariables
 90
        0
 70
     1
 71
     1
 72
     0
  0
DICTIONARY
  5
322
102
{ACAD_REACTORS
330
1A
102
}
330
1A
100
AcDbDictionary
281
     1
  3
Model
350
323
  3
シート 1
350
324
  0
DICTIONARY
  5
19
102
{ACAD_REACTORS
330
1A
102
}
330
1A
100
AcDbDictionary
281
     1
  3
STANDARD
350
1C
  0
DICTIONARY
  5
2FD
102
{ACAD_REACTORS
330
1A
102
}
330
1A
100
AcDbDictionary
281
     1
  0
ACDBDICTIONARYWDFLT
  5
2FE
102
{ACAD_REACTORS
330
1A
102
}
330
1A
100
AcDbDictionary
281
     1
  3
Normal
350
2FF
100
AcDbDictionaryWithDefault
340
2FF
  0
DICTIONARY
  5
300
102
{ACAD_REACTORS
330
1A
102
}
330
1A
100
AcDbDictionary
281
     1
  3
A0
350
301
  3
A1
350
302
  3
A2
350
303
  3
A3
350
304
  3
A4
350
305
  3
A5
350
306
  3
A6
350
307
  3
A7
350
308
  3
A8
350
309
  3
A9
350
30A
  3
B0
350
30B
  3
B1
350
30C
  3
B2
350
30D
  3
B3
350
30E
  3
B4
350
30F
  3
B5
350
310
  3
B6
350
311
  3
B7
350
312
  3
B8
350
313
  3
B9
350
314
  3
C0
350
315
  3
C1
350
316
  3
C2
350
317
  3
C3
350
318
  3
C4
350
319
  3
C5
350
31A
  3
C6
350
31B
  3
C7
350
31C
  3
C8
350
31D
  3
C9
350
31E
  3
D0
350
31F
  3
D1
350
320
  3
D2
350
321
  0
DICTIONARY
  5
355
102
{ACAD_REACTORS
330
1A
102
}
330
1A
100
AcDbDictionary
281
     1
  0
DICTIONARY
  5
34F
102
{ACAD_REACTORS
330
1A
102
}
330
1A
100
AcDbDictionary
281
     1
  0
DICTIONARY
  5
32D
102
{ACAD_REACTORS
330
1A
102
}
330
1A
100
AcDbDictionary
281
     1
  0
XRECORD
  5
392
102
{ACAD_REACTORS
330
1A
102
}
330
1A
100
AcDbXrecord
280
     1
  1
DWGPROPS COOKIE
  2

  3

  4

  6

  7

  8
TACO
  9

300
=
301
=
302
=
303
=
304
=
305
=
306
=
307
=
308
=
309
=
 40
0.0
 41
2450178.569598264
 42
2458038.128248646
  1

 90
        0
  0
LAYOUT
  5
323
102
{ACAD_REACTORS
330
322
102
}
330
322
100
AcDbPlotSettings
  1

  2
none_device
  4
Letter_(8.50_x_11.00_Inches)
  6

 40
6.35
 41
6.35
 42
6.35
 43
6.35
 44
215.9
 45
279.4
 46
0.0
 47
0.0
 48
0.0
 49
0.0
140
0.0
141
0.0
142
1.0
143
132.0772512888324
 70
  1712
 72
     0
 73
     0
 74
     0
  7

 75
     0
147
0.0075713265550413
148
-2340.890114714744
149
-1527.430322961594
100
AcDbLayout
  1
Model
 70
     1
 71
     0
 10
0.0
 20
0.0
 11
12.0
 21
9.0
 12
0.0
 22
0.0
 32
0.0
 14
96.92400197588051
 24
97.99630703306684
 34
0.0
 15
1144.054078229645
 25
575.9053699155406
 35
5.0
146
0.0
 13
0.0
 23
0.0
 33
0.0
 16
1.0
 26
0.0
 36
0.0
 17
0.0
 27
1.0
 37
0.0
 76
     0
330
2
331
2E3
  0
LAYOUT
  5
324
102
{ACAD_REACTORS
330
322
102
}
330
322
100
AcDbPlotSettings
  1

  2
none_device
  4

  6

 40
0.0
 41
0.0
 42
0.0
 43
0.0
 44
0.0
 45
0.0
 46
0.0
 47
0.0
 48
0.0
 49
0.0
140
0.0
141
0.0
142
1.0
143
1.0
 70
   688
 72
     0
 73
     0
 74
     5
  7

 75
    16
147
1.0
148
0.0
149
0.0
100
AcDbLayout
  1
シート 1
 70
     0
 71
     1
 10
0.0
 20
0.0
 11
0.0
 21
0.0
 12
0.0
 22
0.0
 32
0.0
 14
1.000000000000000E+20
 24
1.000000000000000E+20
 34
1.000000000000000E+20
 15
-1.000000000000000E+20
 25
-1.000000000000000E+20
 35
-1.000000000000000E+20
146
0.0
 13
0.0
 23
0.0
 33
0.0
 16
1.0
 26
0.0
 36
0.0
 17
0.0
 27
1.0
 37
0.0
 76
     0
330
7
  0
MLINESTYLE
  5
1C
102
{ACAD_REACTORS
330
19
102
}
330
19
100
AcDbMlineStyle
  2
STANDARD
 70
     0
  3

 62
     0
 51
90.0
 52
90.0
 71
     2
 49
0.5
 62
   256
  6
BYLAYER
 49
-0.5
 62
   256
  6
BYLAYER
  0
ACDBPLACEHOLDER
  5
2FF
102
{ACAD_REACTORS
330
2FE
102
}
330
2FE
  0
SCALE
  5
301
102
{ACAD_REACTORS
330
300
102
}
330
300
100
AcDbScale
 70
     0
300
1:1
140
1.0
141
1.0
290
     1
  0
SCALE
  5
302
102
{ACAD_REACTORS
330
300
102
}
330
300
100
AcDbScale
 70
     0
300
1:2
140
1.0
141
2.0
290
     0
  0
SCALE
  5
303
102
{ACAD_REACTORS
330
300
102
}
330
300
100
AcDbScale
 70
     0
300
1:4
140
1.0
141
4.0
290
     0
  0
SCALE
  5
304
102
{ACAD_REACTORS
330
300
102
}
330
300
100
AcDbScale
 70
     0
300
1:5
140
1.0
141
5.0
290
     0
  0
SCALE
  5
305
102
{ACAD_REACTORS
330
300
102
}
330
300
100
AcDbScale
 70
     0
300
1:8
140
1.0
141
8.0
290
     0
  0
SCALE
  5
306
102
{ACAD_REACTORS
330
300
102
}
330
300
100
AcDbScale
 70
     0
300
1:10
140
1.0
141
10.0
290
     0
  0
SCALE
  5
307
102
{ACAD_REACTORS
330
300
102
}
330
300
100
AcDbScale
 70
     0
300
1:16
140
1.0
141
16.0
290
     0
  0
SCALE
  5
308
102
{ACAD_REACTORS
330
300
102
}
330
300
100
AcDbScale
 70
     0
300
1:20
140
1.0
141
20.0
290
     0
  0
SCALE
  5
309
102
{ACAD_REACTORS
330
300
102
}
330
300
100
AcDbScale
 70
     0
300
1:30
140
1.0
141
30.0
290
     0
  0
SCALE
  5
30A
102
{ACAD_REACTORS
330
300
102
}
330
300
100
AcDbScale
 70
     0
300
1:40
140
1.0
141
40.0
290
     0
  0
SCALE
  5
30B
102
{ACAD_REACTORS
330
300
102
}
330
300
100
AcDbScale
 70
     0
300
1:50
140
1.0
141
50.0
290
     0
  0
SCALE
  5
30C
102
{ACAD_REACTORS
330
300
102
}
330
300
100
AcDbScale
 70
     0
300
1:100
140
1.0
141
100.0
290
     0
  0
SCALE
  5
30D
102
{ACAD_REACTORS
330
300
102
}
330
300
100
AcDbScale
 70
     0
300
2:1
140
2.0
141
1.0
290
     0
  0
SCALE
  5
30E
102
{ACAD_REACTORS
330
300
102
}
330
300
100
AcDbScale
 70
     0
300
4:1
140
4.0
141
1.0
290
     0
  0
SCALE
  5
30F
102
{ACAD_REACTORS
330
300
102
}
330
300
100
AcDbScale
 70
     0
300
8:1
140
8.0
141
1.0
290
     0
  0
SCALE
  5
310
102
{ACAD_REACTORS
330
300
102
}
330
300
100
AcDbScale
 70
     0
300
10:1
140
10.0
141
1.0
290
     0
  0
SCALE
  5
311
102
{ACAD_REACTORS
330
300
102
}
330
300
100
AcDbScale
 70
     0
300
100:1
140
100.0
141
1.0
290
     0
  0
SCALE
  5
312
102
{ACAD_REACTORS
330
300
102
}
330
300
100
AcDbScale
 70
     0
300
1/128" = 1'-0"
140
0.0078125
141
12.0
290
     0
  0
SCALE
  5
313
102
{ACAD_REACTORS
330
300
102
}
330
300
100
AcDbScale
 70
     0
300
1/64" = 1'-0"
140
0.015625
141
12.0
290
     0
  0
SCALE
  5
314
102
{ACAD_REACTORS
330
300
102
}
330
300
100
AcDbScale
 70
     0
300
1/32" = 1'-0"
140
0.03125
141
12.0
290
     0
  0
SCALE
  5
315
102
{ACAD_REACTORS
330
300
102
}
330
300
100
AcDbScale
 70
     0
300
1/16" = 1'-0"
140
0.0625
141
12.0
290
     0
  0
SCALE
  5
316
102
{ACAD_REACTORS
330
300
102
}
330
300
100
AcDbScale
 70
     0
300
3/32" = 1'-0"
140
0.09375
141
12.0
290
     0
  0
SCALE
  5
317
102
{ACAD_REACTORS
330
300
102
}
330
300
100
AcDbScale
 70
     0
300
1/8" = 1'-0"
140
0.125
141
12.0
290
     0
  0
SCALE
  5
318
102
{ACAD_REACTORS
330
300
102
}
330
300
100
AcDbScale
 70
     0
300
3/16" = 1'-0"
140
0.1875
141
12.0
290
     0
  0
SCALE
  5
319
102
{ACAD_REACTORS
330
300
102
}
330
300
100
AcDbScale
 70
     0
300
1/4" = 1'-0"
140
0.25
141
12.0
290
     0
  0
SCALE
  5
31A
102
{ACAD_REACTORS
330
300
102
}
330
300
100
AcDbScale
 70
     0
300
3/8" = 1'-0"
140
0.375
141
12.0
290
     0
  0
SCALE
  5
31B
102
{ACAD_REACTORS
330
300
102
}
330
300
100
AcDbScale
 70
     0
300
1/2" = 1'-0"
140
0.5
141
12.0
290
     0
  0
SCALE
  5
31C
102
{ACAD_REACTORS
330
300
102
}
330
300
100
AcDbScale
 70
     0
300
3/4" = 1'-0"
140
0.75
141
12.0
290
     0
  0
SCALE
  5
31D
102
{ACAD_REACTORS
330
300
102
}
330
300
100
AcDbScale
 70
     0
300
1" = 1'-0"
140
1.0
141
12.0
290
     0
  0
SCALE
  5
31E
102
{ACAD_REACTORS
330
300
102
}
330
300
100
AcDbScale
 70
     0
300
1-1/2" = 1'-0"
140
1.5
141
12.0
290
     0
  0
SCALE
  5
31F
102
{ACAD_REACTORS
330
300
102
}
330
300
100
AcDbScale
 70
     0
300
3" = 1'-0"
140
3.0
141
12.0
290
     0
  0
SCALE
  5
320
102
{ACAD_REACTORS
330
300
102
}
330
300
100
AcDbScale
 70
     0
300
6" = 1'-0"
140
6.0
141
12.0
290
     0
  0
SCALE
  5
321
102
{ACAD_REACTORS
330
300
102
}
330
300
100
AcDbScale
 70
     0
300
1'-0" = 1'-0"
140
12.0
141
12.0
290
     0
  0
ENDSEC
  0
EOF
