  0
SECTION
  2
HEADER
  9
$ACADVER
  1
AC1006
  9
$INSBASE
 10
0.0
 20
0.0
 30
0.0
  9
$EXTMIN
 10
40.0
 20
40.0
  9
$EXTMAX
 10
845.5
 20
463.5
  9
$LIMMIN
 10
0.0
 20
0.0
  9
$LIMMAX
 10
841.0
 20
594.0
  9
$ORTHOMODE
 70
     0
  9
$REGENMODE
 70
     1
  9
$FILLMODE
 70
     1
  9
$QTEXTMODE
 70
     0
  9
$MIRRTEXT
 70
     1
  9
$DRAGMODE
 70
     2
  9
$LTSCALE
 40
1.0
  9
$OSMODE
 70
     0
  9
$ATTMODE
 70
     1
  9
$TEXTSIZE
 40
4.5
  9
$TRACEWID
 40
0.05
  9
$TEXTSTYLE
  7
STANDARD
  9
$CLAYER
  8
L-ZISSEN
  9
$CELTYPE
  6
BYLAYER
  9
$CECOLOR
 62
   256
  9
$DIMSCALE
 40
1.0
  9
$DIMASZ
 40
2.0
  9
$DIMEXO
 40
1.0
  9
$DIMDLI
 40
0.38
  9
$DIMRND
 40
0.0
  9
$DIMDLE
 40
1.0
  9
$DIMEXE
 40
1.0
  9
$DIMTP
 40
0.0
  9
$DIMTM
 40
0.0
  9
$DIMTXT
 40
4.5
  9
$DIMCEN
 40
0.09
  9
$DIMTSZ
 40
0.0
  9
$DIMTOL
 70
     0
  9
$DIMLIM
 70
     0
  9
$DIMTIH
 70
     0
  9
$DIMTOH
 70
     0
  9
$DIMSE1
 70
     0
  9
$DIMSE2
 70
     0
  9
$DIMTAD
 70
     1
  9
$DIMZIN
 70
     0
  9
$DIMBLK
  1

  9
$DIMASO
 70
     0
  9
$DIMSHO
 70
     0
  9
$DIMPOST
  1

  9
$DIMAPOST
  1

  9
$DIMALT
 70
     0
  9
$DIMALTD
 70
     2
  9
$DIMALTF
 40
25.4
  9
$DIMLFAC
 40
1.0
  9
$DIMTOFL
 70
     1
  9
$DIMTVP
 40
0.0
  9
$DIMTIX
 70
     1
  9
$DIMSOXD
 70
     0
  9
$DIMSAH
 70
     0
  9
$DIMBLK1
  1

  9
$DIMBLK2
  1

  9
$LUNITS
 70
     2
  9
$LUPREC
 70
     4
  9
$AXISMODE
 70
     0
  9
$AXISUNIT
 10
0.0
 20
0.0
  9
$SKETCHINC
 40
0.1
  9
$FILLETRAD
 40
0.0
  9
$AUNITS
 70
     0
  9
$AUPREC
 70
     0
  9
$MENU
  1
acad
  9
$ELEVATION
 40
0.0
  9
$THICKNESS
 40
0.0
  9
$LIMCHECK
 70
     0
  9
$BLIPMODE
 70
     1
  9
$CHAMFERA
 40
0.0
  9
$CHAMFERB
 40
0.0
  9
$SKPOLY
 70
     0
  9
$TDCREATE
 40
2449251.2904050928
  9
$TDUPDATE
 40
2449251.2904050928
  9
$TDINDWG
 40
0.0000000000
  9
$TDUSRTIMER
 40
0.0000000000
  9
$USRTIMER
 70
     1
  9
$ANGBASE
 50
0.0
  9
$ANGDIR
 70
     0
  9
$PDMODE
 70
     0
  9
$PDSIZE
 40
0.0
  9
$PLINEWID
 40
0.0
  9
$COORDS
 70
     2
  9
$SPLFRAME
 70
     0
  9
$SPLINETYPE
 70
     6
  9
$SPLINESEGS
 70
     8
  9
$ATTDIA
 70
     0
  9
$ATTREQ
 70
     1
  9
$HANDLING
 70
     0
  9
$HANDSEED
  5
0
  9
$SURFTAB1
 70
     6
  9
$SURFTAB2
 70
     6
  9
$SURFTYPE
 70
     6
  9
$SURFU
 70
     6
  9
$SURFV
 70
     6
  9
$FLATLAND
 70
     0
  9
$UCSNAME
  2

  9
$UCSORG
 10
0.0
 20
0.0
 30
0.0
  9
$UCSXDIR
 10
1.0
 20
0.0
 30
0.0
  9
$UCSYDIR
 10
0.0
 20
1.0
 30
0.0
  9
$USERI1
 70
     0
  9
$USERI2
 70
     0
  9
$USERI3
 70
     0
  9
$USERI4
 70
     0
  9
$USERI5
 70
     0
  9
$USERR1
 40
0.0
  9
$USERR2
 40
0.0
  9
$USERR3
 40
0.0
  9
$USERR4
 40
0.0
  9
$USERR5
 40
0.0
  9
$WORLDVIEW
 70
     1
  0
ENDSEC
  0
SECTION
  2
TABLES
  0
TABLE
  2
VPORT
 70
     2
  0
VPORT
  2
*ACTIVE
 70
     0
 10
0.0
 20
0.0
 11
1.0
 21
1.0
 12
476.455978
 22
307.649038
 13
0.0
 23
0.0
 14
5.0
 24
5.0
 15
0.0
 25
0.0
 16
0.0
 26
0.0
 36
1.0
 17
0.0
 27
0.0
 37
0.0
 40
615.298075
 41
1.5487
 42
50.0
 43
0.0
 44
0.0
 50
0.0
 51
0.0
 71
     0
 72
   100
 73
     1
 74
     0
 75
     0
 76
     0
 77
     0
 78
     0
  0
ENDTAB
  0
TABLE
  2
LTYPE
 70
     2
  0
LTYPE
  2
CONTINUOUS
 70
    64
  3
Solid line
 72
    65
 73
     0
 40
0.0
  0
LTYPE
  2
CENTER
 70
    64
  3
____ _ ____ _ ____ _ ____ _ 
 72
    65
 73
     4
 40
60.0
 49
45.0
 49
-5.0
 49
5.0
 49
-5.0
  0
ENDTAB
  0
TABLE
  2
LAYER
 70
     3
  0
LAYER
  2
0
 70
     0
 62
     7
  6
CONTINUOUS
  0
LAYER
  2
L-ZISSEN
 70
    64
 62
     7
  6
CONTINUOUS
  0
LAYER
  2
L-TYUSIN
 70
    64
 62
     1
  6
CENTER
  0
ENDTAB
  0
TABLE
  2
STYLE
 70
     1
  0
STYLE
  2
STANDARD
 70
    64
 40
0.0
 41
1.0
 50
0.0
 71
     0
 42
4.5
  3
TXT
  4

  0
ENDTAB
  0
TABLE
  2
VIEW
 70
     0
  0
ENDTAB
  0
TABLE
  2
UCS
 70
     0
  0
ENDTAB
  0
TABLE
  2
DWGMGR
 70
     0
  0
ENDTAB
  0
ENDSEC
  0
SECTION
  2
BLOCKS
  0
ENDSEC
  0
SECTION
  2
ENTITIES
  0
LINE
  8
L-TYUSIN
  6
CENTER
 62
     1
 10
206.5
 20
134.0
 30
0.0
 11
180.5
 21
134.0
 31
0.0
  0
LINE
  8
L-ZISSEN
 10
198.000001
 20
129.5
 30
0.0
 11
189.0
 21
129.5
 31
0.0
  0
LINE
  8
L-ZISSEN
 10
198.0
 20
138.5
 30
0.0
 11
189.000001
 21
138.5
 31
0.0
  0
ARC
  8
L-ZISSEN
 10
189.0
 20
134.0
 30
0.0
 40
4.5
 50
89.999983
 51
270.000016
  0
ARC
  8
L-ZISSEN
 10
198.0
 20
134.0
 30
0.0
 40
4.5
 50
270.000007
 51
89.99999
  0
ARC
  8
L-ZISSEN
 10
302.0
 20
134.0
 30
0.0
 40
4.5
 50
90.0
 51
270.000014
  0
ARC
  8
L-ZISSEN
 10
311.0
 20
134.0
 30
0.0
 40
4.5
 50
270.000021
 51
90.0
  0
LINE
  8
L-ZISSEN
 10
311.000002
 20
129.5
 30
0.0
 11
302.000001
 21
129.5
 31
0.0
  0
LINE
  8
L-ZISSEN
 10
311.0
 20
138.5
 30
0.0
 11
302.0
 21
138.5
 31
0.0
  0
LINE
  8
L-TYUSIN
  6
CENTER
 62
     1
 10
193.5
 20
142.5
 30
0.0
 11
193.5
 21
125.5
 31
0.0
  0
LINE
  8
L-TYUSIN
  6
CENTER
 62
     1
 10
306.5
 20
142.5
 30
0.0
 11
306.5
 21
125.5
 31
0.0
  0
LINE
  8
L-TYUSIN
  6
CENTER
 62
     1
 10
458.8
 20
134.0
 30
0.0
 11
470.0
 21
134.0
 31
0.0
  0
LINE
  8
L-ZISSEN
 10
443.0
 20
122.0
 30
0.0
 11
466.0
 21
122.0
 31
0.0
  0
LINE
  8
L-ZISSEN
 10
443.0
 20
146.0
 30
0.0
 11
466.0
 21
146.0
 31
0.0
  0
LINE
  8
L-ZISSEN
 10
320.0
 20
122.0
 30
0.0
 11
306.0
 21
122.0
 31
0.0
  0
LINE
  8
L-TYUSIN
  6
CENTER
 62
     1
 10
319.5
 20
134.0
 30
0.0
 11
293.5
 21
134.0
 31
0.0
  0
LINE
  8
L-ZISSEN
 10
320.0
 20
146.0
 30
0.0
 11
320.0
 21
122.0
 31
0.0
  0
LINE
  8
L-ZISSEN
 10
292.2
 20
146.0
 30
0.0
 11
292.2
 21
127.0
 31
0.0
  0
LINE
  8
L-ZISSEN
 10
207.8
 20
146.0
 30
0.0
 11
207.8
 21
127.0
 31
0.0
  0
LINE
  8
L-ZISSEN
 10
462.8
 20
146.0
 30
0.0
 11
462.8
 21
122.0
 31
0.0
  0
LINE
  8
L-ZISSEN
 10
466.0
 20
146.0
 30
0.0
 11
466.0
 21
122.0
 31
0.0
  0
LINE
  8
L-ZISSEN
 10
278.0
 20
72.0
 30
0.0
 11
278.0
 21
129.583802
 31
0.0
  0
LINE
  8
L-ZISSEN
 10
438.5
 20
164.0
 30
0.0
 11
438.5
 21
155.0
 31
0.0
  0
LINE
  8
L-ZISSEN
 10
224.0
 20
164.0
 30
0.0
 11
276.0
 21
164.0
 31
0.0
  0
LINE
  8
L-ZISSEN
 10
218.5
 20
155.0
 30
0.0
 11
218.5
 21
146.0
 31
0.0
  0
LINE
  8
L-ZISSEN
 10
438.0
 20
56.5
 30
0.0
 11
382.0
 21
56.5
 31
0.0
  0
LINE
  8
L-ZISSEN
 10
427.0
 20
53.5
 30
0.0
 11
393.0
 21
53.5
 31
0.0
  0
ARC
  8
L-ZISSEN
 10
410.0
 20
154.0
 30
0.0
 40
8.0
 50
0.0
 51
180.0
  0
LINE
  8
L-ZISSEN
 10
441.5
 20
145.0
 30
0.0
 11
441.5
 21
155.0
 31
0.0
  0
LINE
  8
L-ZISSEN
 10
418.0
 20
146.0
 30
0.0
 11
418.0
 21
154.0
 31
0.0
  0
LINE
  8
L-ZISSEN
 10
402.0
 20
146.0
 30
0.0
 11
402.0
 21
154.0
 31
0.0
  0
LINE
  8
L-ZISSEN
 10
378.5
 20
145.0
 30
0.0
 11
378.5
 21
155.0
 31
0.0
  0
LINE
  8
L-ZISSEN
 10
425.7
 20
155.0
 30
0.0
 11
425.7
 21
164.0
 31
0.0
  0
LINE
  8
L-ZISSEN
 10
394.3
 20
155.0
 30
0.0
 11
394.3
 21
164.0
 31
0.0
  0
LINE
  8
L-ZISSEN
 10
267.0
 20
159.0
 30
0.0
 11
277.0
 21
159.0
 31
0.0
  0
LINE
  8
L-ZISSEN
 10
277.0
 20
159.0
 30
0.0
 11
277.0
 21
155.0
 31
0.0
  0
LINE
  8
L-ZISSEN
 10
267.0
 20
159.0
 30
0.0
 11
267.0
 21
155.0
 31
0.0
  0
LINE
  8
L-ZISSEN
 10
281.5
 20
155.0
 30
0.0
 11
281.5
 21
146.0
 31
0.0
  0
LINE
  8
L-ZISSEN
 10
276.0
 20
164.0
 30
0.0
 11
276.0
 21
159.0
 31
0.0
  0
LINE
  8
L-ZISSEN
 10
265.7
 20
164.0
 30
0.0
 11
265.7
 21
155.0
 31
0.0
  0
LINE
  8
L-ZISSEN
 10
234.3
 20
164.0
 30
0.0
 11
234.3
 21
155.0
 31
0.0
  0
LINE
  8
L-ZISSEN
 10
211.0
 20
155.0
 30
0.0
 11
281.5
 21
155.0
 31
0.0
  0
LINE
  8
L-ZISSEN
 10
211.0
 20
146.1
 30
0.0
 11
211.0
 21
155.0
 31
0.0
  0
LINE
  8
L-ZISSEN
 10
299.5
 20
146.0
 30
0.0
 11
299.5
 21
162.1
 31
0.0
  0
LINE
  8
L-ZISSEN
 10
299.5
 20
162.1
 30
0.0
 11
276.0
 21
162.1
 31
0.0
  0
LINE
  8
L-ZISSEN
 10
224.0
 20
164.0
 30
0.0
 11
224.0
 21
159.0
 31
0.0
  0
LINE
  8
L-ZISSEN
 10
230.25
 20
56.5
 30
0.0
 11
230.25
 21
53.5
 31
0.0
  0
LINE
  8
L-ZISSEN
 10
230.25
 20
53.5
 30
0.0
 11
269.75
 21
53.5
 31
0.0
  0
LINE
  8
L-ZISSEN
 10
269.75
 20
56.5
 30
0.0
 11
269.75
 21
53.5
 31
0.0
  0
LINE
  8
L-ZISSEN
 10
217.0
 20
56.5
 30
0.0
 11
283.0
 21
56.5
 31
0.0
  0
LINE
  8
L-ZISSEN
 10
229.0
 20
49.0
 30
0.0
 11
229.0
 21
56.5
 31
0.0
  0
LINE
  8
L-ZISSEN
 10
219.0
 20
49.0
 30
0.0
 11
219.0
 21
56.5
 31
0.0
  0
LINE
  8
L-ZISSEN
 10
229.0
 20
49.0
 30
0.0
 11
219.0
 21
49.0
 31
0.0
  0
LINE
  8
L-ZISSEN
 10
438.5
 20
164.0
 30
0.0
 11
386.5
 21
164.0
 31
0.0
  0
LINE
  8
L-ZISSEN
 10
378.5
 20
155.0
 30
0.0
 11
402.0
 21
155.0
 31
0.0
  0
LINE
  8
L-ZISSEN
 10
441.5
 20
155.0
 30
0.0
 11
418.0
 21
155.0
 31
0.0
  0
LINE
  8
L-TYUSIN
  6
CENTER
 62
     1
 10
410.0
 20
255.7
 30
0.0
 11
410.0
 21
48.5
 31
0.0
  0
LINE
  8
L-ZISSEN
 10
291.0
 20
128.0
 30
0.0
 11
283.0
 21
128.0
 31
0.0
  0
LINE
  8
L-ZISSEN
 10
306.0
 20
77.5
 30
0.0
 11
298.5
 21
77.5
 31
0.0
  0
LINE
  8
L-ZISSEN
 10
306.0
 20
122.5
 30
0.0
 11
306.0
 21
77.5
 31
0.0
  0
CIRCLE
  8
L-ZISSEN
 10
410.0
 20
100.0
 30
0.0
 40
22.5
  0
LINE
  8
L-ZISSEN
 10
377.0
 20
128.0
 30
0.0
 11
443.0
 21
128.0
 31
0.0
  0
LINE
  8
L-TYUSIN
  6
CENTER
 62
     1
 10
370.0
 20
100.0
 30
0.0
 11
450.0
 21
100.0
 31
0.0
  0
CIRCLE
  8
L-ZISSEN
 10
250.0
 20
129.0
 30
0.0
 40
2.1
  0
LINE
  8
L-ZISSEN
 10
377.0
 20
129.353846
 30
0.0
 11
395.0
 21
129.353846
 31
0.0
  0
LINE
  8
L-ZISSEN
 10
222.0
 20
101.0
 30
0.0
 11
222.0
 21
129.583802
 31
0.0
  0
LINE
  8
L-TYUSIN
  6
CENTER
 62
     1
 10
374.0
 20
100.0
 30
0.0
 11
390.0
 21
100.0
 31
0.0
  0
LINE
  8
L-TYUSIN
  6
CENTER
 62
     1
 10
311.0
 20
100.0
 30
0.0
 11
189.0
 21
100.0
 31
0.0
  0
LINE
  8
L-TYUSIN
  6
CENTER
 62
     1
 10
250.0
 20
230.5
 30
0.0
 11
250.0
 21
48.5
 31
0.0
  0
CIRCLE
  8
L-ZISSEN
 10
281.0
 20
137.0
 30
0.0
 40
3.375
  0
CIRCLE
  8
L-ZISSEN
 10
219.0
 20
137.0
 30
0.0
 40
3.375
  0
LINE
  8
L-ZISSEN
 10
283.0
 20
61.0
 30
0.0
 11
217.0
 21
61.0
 31
0.0
  0
LINE
  8
L-ZISSEN
 10
320.0
 20
146.0
 30
0.0
 11
180.0
 21
146.0
 31
0.0
  0
ARC
  8
L-ZISSEN
 10
281.0
 20
137.0
 30
0.0
 40
8.0
 50
284.477512
 51
247.975687
  0
LINE
  8
L-ZISSEN
 10
283.0
 20
56.5
 30
0.0
 11
283.0
 21
129.254033
 31
0.0
  0
LINE
  8
L-ZISSEN
 10
289.0
 20
141.0
 30
0.0
 11
287.928203
 21
141.0
 31
0.0
  0
LINE
  8
L-ZISSEN
 10
289.0
 20
128.0
 30
0.0
 11
289.0
 21
146.0
 31
0.0
  0
LINE
  8
L-ZISSEN
 10
274.071797
 20
141.0
 30
0.0
 11
256.0
 21
141.0
 31
0.0
  0
LINE
  8
L-ZISSEN
 10
256.0
 20
141.0
 30
0.0
 11
256.0
 21
129.0
 31
0.0
  0
LINE
  8
L-ZISSEN
 10
226.0
 20
101.0
 30
0.0
 11
222.0
 21
101.0
 31
0.0
  0
ARC
  8
L-ZISSEN
 10
226.0
 20
92.0
 30
0.0
 40
9.0
 50
270.0
 51
90.000015
  0
ARC
  8
L-ZISSEN
 10
250.0
 20
129.0
 30
0.0
 40
6.0
 50
180.0
 51
360.0
  0
LINE
  8
L-ZISSEN
 10
244.0
 20
141.0
 30
0.0
 11
244.0
 21
129.0
 31
0.0
  0
LINE
  8
L-ZISSEN
 10
225.928203
 20
141.0
 30
0.0
 11
244.0
 21
141.0
 31
0.0
  0
LINE
  8
L-ZISSEN
 10
211.0
 20
128.0
 30
0.0
 11
211.0
 21
146.0
 31
0.0
  0
LINE
  8
L-ZISSEN
 10
211.0
 20
141.0
 30
0.0
 11
212.071797
 21
141.0
 31
0.0
  0
LINE
  8
L-ZISSEN
 10
222.0
 20
72.0
 30
0.0
 11
222.0
 21
83.0
 31
0.0
  0
LINE
  8
L-ZISSEN
 10
217.0
 20
56.5
 30
0.0
 11
217.0
 21
129.254033
 31
0.0
  0
LINE
  8
L-ZISSEN
 10
417.5
 20
146.0
 30
0.0
 11
417.5
 21
130.0
 31
0.0
  0
LINE
  8
L-ZISSEN
 10
395.0
 20
145.0
 30
0.0
 11
377.0
 21
145.0
 31
0.0
  0
LINE
  8
L-ZISSEN
 10
395.0
 20
145.0
 30
0.0
 11
395.0
 21
129.353846
 31
0.0
  0
LINE
  8
L-ZISSEN
 10
378.5
 20
146.0
 30
0.0
 11
441.5
 21
146.0
 31
0.0
  0
LINE
  8
L-ZISSEN
 10
438.0
 20
61.0
 30
0.0
 11
382.0
 21
61.0
 31
0.0
  0
LINE
  8
L-ZISSEN
 10
382.0
 20
56.5
 30
0.0
 11
382.0
 21
72.0
 31
0.0
  0
LINE
  8
L-ZISSEN
 10
438.0
 20
56.5
 30
0.0
 11
438.0
 21
72.0
 31
0.0
  0
LINE
  8
L-ZISSEN
 10
377.0
 20
72.0
 30
0.0
 11
377.0
 21
145.0
 31
0.0
  0
LINE
  8
L-ZISSEN
 10
443.0
 20
146.0
 30
0.0
 11
443.0
 21
72.0
 31
0.0
  0
LINE
  8
L-ZISSEN
 10
377.0
 20
72.0
 30
0.0
 11
443.0
 21
72.0
 31
0.0
  0
LINE
  8
L-ZISSEN
 10
291.0
 20
72.0
 30
0.0
 11
278.0
 21
72.0
 31
0.0
  0
LINE
  8
L-ZISSEN
 10
306.0
 20
122.5
 30
0.0
 11
298.5
 21
122.5
 31
0.0
  0
ARC
  8
L-ZISSEN
 10
219.0
 20
137.0
 30
0.0
 40
8.0
 50
292.024313
 51
255.522488
  0
LINE
  8
L-ZISSEN
 10
194.0
 20
77.5
 30
0.0
 11
201.5
 21
77.5
 31
0.0
  0
LINE
  8
L-ZISSEN
 10
194.0
 20
122.5
 30
0.0
 11
194.0
 21
77.5
 31
0.0
  0
LINE
  8
L-ZISSEN
 10
194.0
 20
122.5
 30
0.0
 11
201.5
 21
122.5
 31
0.0
  0
LINE
  8
L-ZISSEN
 10
209.0
 20
128.0
 30
0.0
 11
217.0
 21
128.0
 31
0.0
  0
LINE
  8
L-ZISSEN
 10
209.0
 20
72.0
 30
0.0
 11
222.0
 21
72.0
 31
0.0
  0
LINE
  8
L-ZISSEN
 10
180.0
 20
122.0
 30
0.0
 11
194.0
 21
122.0
 31
0.0
  0
LINE
  8
L-ZISSEN
 10
180.0
 20
146.0
 30
0.0
 11
180.0
 21
122.0
 31
0.0
  0
LINE
  8
L-ZISSEN
 10
180.0
 20
122.0
 30
0.0
 11
194.0
 21
122.0
 31
0.0
  0
LINE
  8
L-ZISSEN
 10
223.0
 20
159.0
 30
0.0
 11
223.0
 21
155.0
 31
0.0
  0
LINE
  8
L-ZISSEN
 10
233.0
 20
159.0
 30
0.0
 11
233.0
 21
155.0
 31
0.0
  0
LINE
  8
L-ZISSEN
 10
223.0
 20
159.0
 30
0.0
 11
233.0
 21
159.0
 31
0.0
  0
LINE
  8
L-ZISSEN
 10
271.0
 20
49.0
 30
0.0
 11
271.0
 21
56.5
 31
0.0
  0
LINE
  8
L-ZISSEN
 10
281.0
 20
49.0
 30
0.0
 11
271.0
 21
49.0
 31
0.0
  0
LINE
  8
L-ZISSEN
 10
281.0
 20
49.0
 30
0.0
 11
281.0
 21
56.5
 31
0.0
  0
LINE
  8
L-ZISSEN
 10
201.5
 20
117.0
 30
0.0
 11
201.5
 21
127.0
 31
0.0
  0
LINE
  8
L-ZISSEN
 10
201.5
 20
127.0
 30
0.0
 11
209.0
 21
127.0
 31
0.0
  0
LINE
  8
L-ZISSEN
 10
201.5
 20
117.0
 30
0.0
 11
209.0
 21
117.0
 31
0.0
  0
LINE
  8
L-ZISSEN
 10
209.0
 20
128.0
 30
0.0
 11
209.0
 21
72.0
 31
0.0
  0
LINE
  8
L-ZISSEN
 10
201.5
 20
83.0
 30
0.0
 11
209.0
 21
83.0
 31
0.0
  0
LINE
  8
L-ZISSEN
 10
201.5
 20
73.0
 30
0.0
 11
209.0
 21
73.0
 31
0.0
  0
LINE
  8
L-ZISSEN
 10
201.5
 20
83.0
 30
0.0
 11
201.5
 21
73.0
 31
0.0
  0
LINE
  8
L-ZISSEN
 10
402.5
 20
130.0
 30
0.0
 11
417.5
 21
130.0
 31
0.0
  0
LINE
  8
L-ZISSEN
 10
425.0
 20
145.0
 30
0.0
 11
425.0
 21
129.353846
 31
0.0
  0
LINE
  8
L-ZISSEN
 10
425.0
 20
145.0
 30
0.0
 11
443.0
 21
145.0
 31
0.0
  0
LINE
  8
L-ZISSEN
 10
443.0
 20
129.353846
 30
0.0
 11
425.0
 21
129.353846
 31
0.0
  0
LINE
  8
L-ZISSEN
 10
402.5
 20
146.0
 30
0.0
 11
402.5
 21
130.0
 31
0.0
  0
LINE
  8
L-ZISSEN
 10
383.0
 20
159.0
 30
0.0
 11
383.0
 21
155.1
 31
0.0
  0
LINE
  8
L-ZISSEN
 10
393.0
 20
159.0
 30
0.0
 11
393.0
 21
155.1
 31
0.0
  0
LINE
  8
L-ZISSEN
 10
383.0
 20
159.0
 30
0.0
 11
393.0
 21
159.0
 31
0.0
  0
LINE
  8
L-ZISSEN
 10
427.0
 20
159.0
 30
0.0
 11
437.0
 21
159.0
 31
0.0
  0
LINE
  8
L-ZISSEN
 10
437.0
 20
159.0
 30
0.0
 11
437.0
 21
155.1
 31
0.0
  0
LINE
  8
L-ZISSEN
 10
427.0
 20
159.0
 30
0.0
 11
427.0
 21
155.1
 31
0.0
  0
LINE
  8
L-ZISSEN
 10
628.5
 20
83.0
 30
0.0
 11
628.5
 21
73.0
 31
0.0
  0
LINE
  8
L-ZISSEN
 10
628.5
 20
73.0
 30
0.0
 11
621.0
 21
73.0
 31
0.0
  0
LINE
  8
L-ZISSEN
 10
628.5
 20
83.0
 30
0.0
 11
621.0
 21
83.0
 31
0.0
  0
LINE
  8
L-ZISSEN
 10
621.0
 20
122.0
 30
0.0
 11
621.0
 21
72.0
 31
0.0
  0
LINE
  8
L-ZISSEN
 10
628.5
 20
117.0
 30
0.0
 11
621.0
 21
117.0
 31
0.0
  0
LINE
  8
L-ZISSEN
 10
628.5
 20
117.0
 30
0.0
 11
628.5
 21
122.0
 31
0.0
  0
LINE
  8
L-ZISSEN
 10
549.0
 20
49.0
 30
0.0
 11
549.0
 21
56.5
 31
0.0
  0
LINE
  8
L-ZISSEN
 10
549.0
 20
49.0
 30
0.0
 11
559.0
 21
49.0
 31
0.0
  0
LINE
  8
L-ZISSEN
 10
559.0
 20
49.0
 30
0.0
 11
559.0
 21
56.5
 31
0.0
  0
LINE
  8
L-ZISSEN
 10
607.0
 20
159.0
 30
0.0
 11
597.0
 21
159.0
 31
0.0
  0
LINE
  8
L-ZISSEN
 10
597.0
 20
159.0
 30
0.0
 11
597.0
 21
155.0
 31
0.0
  0
LINE
  8
L-ZISSEN
 10
607.0
 20
159.0
 30
0.0
 11
607.0
 21
155.0
 31
0.0
  0
LINE
  8
L-ZISSEN
 10
650.0
 20
122.0
 30
0.0
 11
636.0
 21
122.0
 31
0.0
  0
LINE
  8
L-ZISSEN
 10
650.0
 20
146.0
 30
0.0
 11
650.0
 21
122.0
 31
0.0
  0
LINE
  8
L-ZISSEN
 10
650.0
 20
122.0
 30
0.0
 11
510.0
 21
122.0
 31
0.0
  0
LINE
  8
L-ZISSEN
 10
621.0
 20
72.0
 30
0.0
 11
608.0
 21
72.0
 31
0.0
  0
LINE
  8
L-ZISSEN
 10
636.0
 20
122.0
 30
0.0
 11
636.0
 21
77.5
 31
0.0
  0
LINE
  8
L-ZISSEN
 10
636.0
 20
77.5
 30
0.0
 11
628.5
 21
77.5
 31
0.0
  0
LINE
  8
L-ZISSEN
 10
539.0
 20
72.0
 30
0.0
 11
552.0
 21
72.0
 31
0.0
  0
LINE
  8
L-ZISSEN
 10
613.0
 20
56.5
 30
0.0
 11
613.0
 21
122.0
 31
0.0
  0
LINE
  8
L-ZISSEN
 10
608.0
 20
72.0
 30
0.0
 11
608.0
 21
83.0
 31
0.0
  0
ARC
  8
L-ZISSEN
 10
604.0
 20
92.0
 30
0.0
 40
9.0
 50
89.999985
 51
270.0
  0
LINE
  8
L-ZISSEN
 10
604.0
 20
101.0
 30
0.0
 11
608.0
 21
101.0
 31
0.0
  0
LINE
  8
L-ZISSEN
 10
540.0
 20
122.0
 30
0.0
 11
540.0
 21
146.0
 31
0.0
  0
LINE
  8
L-ZISSEN
 10
547.0
 20
56.5
 30
0.0
 11
547.0
 21
122.0
 31
0.0
  0
LINE
  8
L-ZISSEN
 10
510.0
 20
146.0
 30
0.0
 11
650.0
 21
146.0
 31
0.0
  0
LINE
  8
L-ZISSEN
 10
547.0
 20
61.0
 30
0.0
 11
613.0
 21
61.0
 31
0.0
  0
LINE
  8
L-TYUSIN
  6
CENTER
 62
     1
 10
580.0
 20
229.2
 30
0.0
 11
580.0
 21
48.5
 31
0.0
  0
LINE
  8
L-TYUSIN
  6
CENTER
 62
     1
 10
519.0
 20
100.0
 30
0.0
 11
641.0
 21
100.0
 31
0.0
  0
LINE
  8
L-ZISSEN
 10
608.0
 20
101.0
 30
0.0
 11
608.0
 21
122.0
 31
0.0
  0
CIRCLE
  8
L-ZISSEN
 10
580.0
 20
129.0
 30
0.0
 40
2.1
  0
LINE
  8
L-ZISSEN
 10
524.0
 20
122.0
 30
0.0
 11
524.0
 21
77.5
 31
0.0
  0
LINE
  8
L-ZISSEN
 10
524.0
 20
77.5
 30
0.0
 11
531.5
 21
77.5
 31
0.0
  0
LINE
  8
L-ZISSEN
 10
601.0
 20
49.0
 30
0.0
 11
611.0
 21
49.0
 31
0.0
  0
LINE
  8
L-ZISSEN
 10
611.0
 20
49.0
 30
0.0
 11
611.0
 21
56.5
 31
0.0
  0
LINE
  8
L-ZISSEN
 10
601.0
 20
49.0
 30
0.0
 11
601.0
 21
56.5
 31
0.0
  0
LINE
  8
L-ZISSEN
 10
613.0
 20
56.5
 30
0.0
 11
547.0
 21
56.5
 31
0.0
  0
LINE
  8
L-ZISSEN
 10
560.25
 20
56.5
 30
0.0
 11
560.25
 21
53.5
 31
0.0
  0
LINE
  8
L-ZISSEN
 10
599.75
 20
53.5
 30
0.0
 11
560.25
 21
53.5
 31
0.0
  0
LINE
  8
L-ZISSEN
 10
599.75
 20
56.5
 30
0.0
 11
599.75
 21
53.5
 31
0.0
  0
LINE
  8
L-ZISSEN
 10
606.0
 20
164.1
 30
0.0
 11
606.0
 21
159.0
 31
0.0
  0
LINE
  8
L-ZISSEN
 10
530.5
 20
162.1
 30
0.0
 11
554.0
 21
162.1
 31
0.0
  0
LINE
  8
L-ZISSEN
 10
530.5
 20
146.0
 30
0.0
 11
530.5
 21
162.1
 31
0.0
  0
LINE
  8
L-ZISSEN
 10
619.0
 20
146.1
 30
0.0
 11
619.0
 21
155.0
 31
0.0
  0
LINE
  8
L-ZISSEN
 10
619.0
 20
155.0
 30
0.0
 11
548.5
 21
155.0
 31
0.0
  0
LINE
  8
L-ZISSEN
 10
595.7
 20
164.1
 30
0.0
 11
595.7
 21
155.0
 31
0.0
  0
LINE
  8
L-ZISSEN
 10
564.3
 20
164.1
 30
0.0
 11
564.3
 21
155.0
 31
0.0
  0
LINE
  8
L-ZISSEN
 10
554.0
 20
164.1
 30
0.0
 11
554.0
 21
159.0
 31
0.0
  0
LINE
  8
L-ZISSEN
 10
548.5
 20
155.0
 30
0.0
 11
548.5
 21
146.0
 31
0.0
  0
LINE
  8
L-ZISSEN
 10
563.0
 20
159.0
 30
0.0
 11
563.0
 21
155.0
 31
0.0
  0
LINE
  8
L-ZISSEN
 10
553.0
 20
159.0
 30
0.0
 11
553.0
 21
155.0
 31
0.0
  0
LINE
  8
L-ZISSEN
 10
563.0
 20
159.0
 30
0.0
 11
553.0
 21
159.0
 31
0.0
  0
LINE
  8
L-ZISSEN
 10
611.5
 20
155.0
 30
0.0
 11
611.5
 21
146.0
 31
0.0
  0
LINE
  8
L-ZISSEN
 10
606.0
 20
164.1
 30
0.0
 11
554.0
 21
164.1
 31
0.0
  0
LINE
  8
L-ZISSEN
 10
552.0
 20
72.0
 30
0.0
 11
552.0
 21
122.0
 31
0.0
  0
LINE
  8
L-ZISSEN
 10
510.0
 20
146.0
 30
0.0
 11
510.0
 21
122.0
 31
0.0
  0
LINE
  8
L-TYUSIN
  6
CENTER
 62
     1
 10
510.5
 20
134.0
 30
0.0
 11
536.5
 21
134.0
 31
0.0
  0
LINE
  8
L-TYUSIN
  6
CENTER
 62
     1
 10
523.5
 20
142.5
 30
0.0
 11
523.5
 21
125.5
 31
0.0
  0
LINE
  8
L-TYUSIN
  6
CENTER
 62
     1
 10
636.5
 20
142.5
 30
0.0
 11
636.5
 21
125.5
 31
0.0
  0
LINE
  8
L-ZISSEN
 10
519.0
 20
138.5
 30
0.0
 11
528.0
 21
138.5
 31
0.0
  0
LINE
  8
L-ZISSEN
 10
518.999998
 20
129.5
 30
0.0
 11
527.999999
 21
129.5
 31
0.0
  0
ARC
  8
L-ZISSEN
 10
519.0
 20
134.0
 30
0.0
 40
4.5
 50
90.0
 51
269.999979
  0
ARC
  8
L-ZISSEN
 10
528.0
 20
134.0
 30
0.0
 40
4.5
 50
269.999986
 51
90.0
  0
ARC
  8
L-ZISSEN
 10
632.0
 20
134.0
 30
0.0
 40
4.5
 50
90.00001
 51
269.999993
  0
ARC
  8
L-ZISSEN
 10
641.0
 20
134.0
 30
0.0
 40
4.5
 50
269.999984
 51
90.000017
  0
LINE
  8
L-ZISSEN
 10
632.0
 20
138.5
 30
0.0
 11
640.999999
 21
138.5
 31
0.0
  0
LINE
  8
L-ZISSEN
 10
631.999999
 20
129.5
 30
0.0
 11
641.0
 21
129.5
 31
0.0
  0
LINE
  8
L-TYUSIN
  6
CENTER
 62
     1
 10
623.5
 20
134.0
 30
0.0
 11
649.5
 21
134.0
 31
0.0
  0
CIRCLE
  8
L-ZISSEN
 10
436.0
 20
122.0
 30
0.0
 40
5.0
  0
CIRCLE
  8
L-ZISSEN
 10
384.0
 20
122.0
 30
0.0
 40
5.0
  0
CIRCLE
  8
L-ZISSEN
 10
384.0
 20
78.0
 30
0.0
 40
5.0
  0
CIRCLE
  8
L-ZISSEN
 10
436.0
 20
78.0
 30
0.0
 40
5.0
  0
CIRCLE
  8
L-ZISSEN
 10
549.0
 20
137.0
 30
0.0
 40
5.0
  0
CIRCLE
  8
L-ZISSEN
 10
611.0
 20
137.0
 30
0.0
 40
5.0
  0
CIRCLE
  8
L-ZISSEN
 10
580.0
 20
129.0
 30
0.0
 40
6.0
  0
LINE
  8
L-ZISSEN
 10
620.0
 20
122.0
 30
0.0
 11
620.0
 21
146.0
 31
0.0
  0
LINE
  8
L-TYUSIN
  6
CENTER
 62
     1
 10
250.0
 20
311.0
 30
0.0
 11
250.0
 21
388.7
 31
0.0
  0
LINE
  8
L-ZISSEN
 10
386.5
 20
159.0
 30
0.0
 11
386.5
 21
164.0
 31
0.0
  0
CIRCLE
  8
L-ZISSEN
 10
410.0
 20
100.0
 30
0.0
 40
15.1455
  0
LINE
  8
L-ZISSEN
 10
281.5
 20
316.0
 30
0.0
 11
218.5
 21
316.0
 31
0.0
  0
LINE
  8
L-ZISSEN
 10
281.5
 20
379.0
 30
0.0
 11
218.5
 21
379.0
 31
0.0
  0
LINE
  8
L-ZISSEN
 10
218.5
 20
316.0
 30
0.0
 11
218.5
 21
332.5
 31
0.0
  0
LINE
  8
L-ZISSEN
 10
281.5
 20
316.0
 30
0.0
 11
281.5
 21
339.5
 31
0.0
  0
LINE
  8
L-ZISSEN
 10
211.0
 20
314.5
 30
0.0
 11
211.0
 21
332.5
 31
0.0
  0
LINE
  8
L-ZISSEN
 10
291.0
 20
314.5
 30
0.0
 11
273.0
 21
314.5
 31
0.0
  0
LINE
  8
L-ZISSEN
 10
273.0
 20
314.5
 30
0.0
 11
273.0
 21
316.0
 31
0.0
  0
LINE
  8
L-ZISSEN
 10
227.0
 20
314.5
 30
0.0
 11
227.0
 21
316.0
 31
0.0
  0
LINE
  8
L-ZISSEN
 10
235.0
 20
314.5
 30
0.0
 11
209.0
 21
314.5
 31
0.0
  0
LINE
  8
L-ZISSEN
 10
293.2
 20
380.5
 30
0.0
 11
206.8
 21
380.5
 31
0.0
  0
LINE
  8
L-ZISSEN
 10
273.0
 20
379.0
 30
0.0
 11
273.0
 21
380.5
 31
0.0
  0
LINE
  8
L-ZISSEN
 10
227.0
 20
379.0
 30
0.0
 11
227.0
 21
380.5
 31
0.0
  0
LINE
  8
L-ZISSEN
 10
289.0
 20
314.5
 30
0.0
 11
289.0
 21
332.5
 31
0.0
  0
LINE
  8
L-ZISSEN
 10
194.0
 20
325.0
 30
0.0
 11
194.0
 21
336.25
 31
0.0
  0
LINE
  8
L-ZISSEN
 10
209.0
 20
314.5
 30
0.0
 11
209.0
 21
332.5
 31
0.0
  0
LINE
  8
L-ZISSEN
 10
291.0
 20
314.5
 30
0.0
 11
291.0
 21
339.5
 31
0.0
  0
LINE
  8
L-ZISSEN
 10
201.5
 20
325.0
 30
0.0
 11
194.0
 21
325.0
 31
0.0
  0
LINE
  8
L-TYUSIN
  6
CENTER
 62
     1
 10
172.6
 20
347.5
 30
0.0
 11
311.0
 21
347.5
 31
0.0
  0
LINE
  8
L-ZISSEN
 10
201.5
 20
316.5
 30
0.0
 11
201.5
 21
326.5
 31
0.0
  0
LINE
  8
L-ZISSEN
 10
201.5
 20
326.5
 30
0.0
 11
209.0
 21
326.5
 31
0.0
  0
LINE
  8
L-ZISSEN
 10
201.5
 20
316.5
 30
0.0
 11
209.0
 21
316.5
 31
0.0
  0
LINE
  8
L-ZISSEN
 10
201.5
 20
378.5
 30
0.0
 11
209.0
 21
378.5
 31
0.0
  0
LINE
  8
L-ZISSEN
 10
201.5
 20
368.5
 30
0.0
 11
209.0
 21
368.5
 31
0.0
  0
LINE
  8
L-ZISSEN
 10
201.5
 20
378.5
 30
0.0
 11
201.5
 21
368.5
 31
0.0
  0
LINE
  8
L-ZISSEN
 10
201.5
 20
370.0
 30
0.0
 11
194.0
 21
370.0
 31
0.0
  0
LINE
  8
L-ZISSEN
 10
210.0
 20
403.5
 30
0.0
 11
180.0
 21
403.5
 31
0.0
  0
LINE
  8
L-ZISSEN
 10
180.0
 20
400.3
 30
0.0
 11
180.0
 21
403.5
 31
0.0
  0
LINE
  8
L-ZISSEN
 10
210.0
 20
383.7
 30
0.0
 11
210.0
 21
403.5
 31
0.0
  0
LINE
  8
L-ZISSEN
 10
206.8
 20
380.5
 30
0.0
 11
206.8
 21
400.3
 31
0.0
  0
LINE
  8
L-ZISSEN
 10
290.0
 20
383.7
 30
0.0
 11
210.0
 21
383.7
 31
0.0
  0
LINE
  8
L-ZISSEN
 10
206.8
 20
400.3
 30
0.0
 11
180.0
 21
400.3
 31
0.0
  0
LINE
  8
L-ZISSEN
 10
293.2
 20
400.3
 30
0.0
 11
320.0
 21
400.3
 31
0.0
  0
LINE
  8
L-ZISSEN
 10
320.0
 20
400.3
 30
0.0
 11
320.0
 21
403.5
 31
0.0
  0
LINE
  8
L-ZISSEN
 10
290.0
 20
403.5
 30
0.0
 11
320.0
 21
403.5
 31
0.0
  0
LINE
  8
L-ZISSEN
 10
293.2
 20
380.5
 30
0.0
 11
293.2
 21
400.3
 31
0.0
  0
LINE
  8
L-ZISSEN
 10
290.0
 20
383.7
 30
0.0
 11
290.0
 21
403.5
 31
0.0
  0
LINE
  8
L-ZISSEN
 10
286.0
 20
391.2
 30
0.0
 11
276.0
 21
391.2
 31
0.0
  0
LINE
  8
L-ZISSEN
 10
276.0
 20
391.2
 30
0.0
 11
276.0
 21
383.7
 31
0.0
  0
LINE
  8
L-ZISSEN
 10
286.0
 20
391.2
 30
0.0
 11
286.0
 21
383.7
 31
0.0
  0
LINE
  8
L-ZISSEN
 10
214.0
 20
391.2
 30
0.0
 11
214.0
 21
383.7
 31
0.0
  0
LINE
  8
L-ZISSEN
 10
224.0
 20
391.2
 30
0.0
 11
224.0
 21
383.7
 31
0.0
  0
LINE
  8
L-ZISSEN
 10
214.0
 20
391.2
 30
0.0
 11
224.0
 21
391.2
 31
0.0
  0
LINE
  8
L-ZISSEN
 10
298.5
 20
83.0
 30
0.0
 11
298.5
 21
73.0
 31
0.0
  0
LINE
  8
L-ZISSEN
 10
298.5
 20
73.0
 30
0.0
 11
291.0
 21
73.0
 31
0.0
  0
LINE
  8
L-ZISSEN
 10
298.5
 20
83.0
 30
0.0
 11
291.0
 21
83.0
 31
0.0
  0
LINE
  8
L-ZISSEN
 10
291.0
 20
128.0
 30
0.0
 11
291.0
 21
72.0
 31
0.0
  0
LINE
  8
L-ZISSEN
 10
298.5
 20
117.0
 30
0.0
 11
291.0
 21
117.0
 31
0.0
  0
LINE
  8
L-ZISSEN
 10
298.5
 20
127.0
 30
0.0
 11
291.0
 21
127.0
 31
0.0
  0
LINE
  8
L-ZISSEN
 10
298.5
 20
117.0
 30
0.0
 11
298.5
 21
127.0
 31
0.0
  0
LINE
  8
L-ZISSEN
 10
531.5
 20
117.0
 30
0.0
 11
531.5
 21
122.0
 31
0.0
  0
LINE
  8
L-ZISSEN
 10
531.5
 20
117.0
 30
0.0
 11
539.0
 21
117.0
 31
0.0
  0
LINE
  8
L-ZISSEN
 10
539.0
 20
122.0
 30
0.0
 11
539.0
 21
72.0
 31
0.0
  0
LINE
  8
L-ZISSEN
 10
531.5
 20
83.0
 30
0.0
 11
539.0
 21
83.0
 31
0.0
  0
LINE
  8
L-ZISSEN
 10
531.5
 20
73.0
 30
0.0
 11
539.0
 21
73.0
 31
0.0
  0
LINE
  8
L-ZISSEN
 10
531.5
 20
83.0
 30
0.0
 11
531.5
 21
73.0
 31
0.0
  0
LINE
  8
L-ZISSEN
 10
393.0
 20
49.0
 30
0.0
 11
393.0
 21
56.5
 31
0.0
  0
LINE
  8
L-ZISSEN
 10
393.0
 20
49.0
 30
0.0
 11
383.0
 21
49.0
 31
0.0
  0
LINE
  8
L-ZISSEN
 10
383.0
 20
49.0
 30
0.0
 11
383.0
 21
56.5
 31
0.0
  0
LINE
  8
L-ZISSEN
 10
427.0
 20
49.0
 30
0.0
 11
427.0
 21
56.5
 31
0.0
  0
LINE
  8
L-ZISSEN
 10
437.0
 20
49.0
 30
0.0
 11
427.0
 21
49.0
 31
0.0
  0
LINE
  8
L-ZISSEN
 10
437.0
 20
49.0
 30
0.0
 11
437.0
 21
56.5
 31
0.0
  0
SOLID
  8
L-ZISSEN
 10
307.120951
 20
98.31045
 30
0.0
 11
307.608322
 21
98.765329
 31
0.0
 12
306.0
 22
100.0
 32
0.0
 13
306.0
 23
100.0
 33
0.0
  0
LINE
  8
L-ZISSEN
 10
307.364637
 20
98.537889
 30
0.0
 11
320.0
 21
85.0
 31
0.0
  0
LINE
  8
L-ZISSEN
 10
320.0
 20
85.0
 30
0.0
 11
322.0
 21
85.0
 31
0.0
  0
TEXT
  8
L-ZISSEN
 10
324.0
 20
82.75
 30
0.0
 40
4.5
  1
PORT 1
  0
TEXT
  8
L-ZISSEN
 10
325.0
 20
75.0
 30
0.0
 40
4.5
  1
Rc 1/2
  0
TEXT
  8
L-ZISSEN
 10
325.0
 20
65.0
 30
0.0
 40
4.5
  1
Rc 3/4
  0
TEXT
  8
L-ZISSEN
 10
325.0
 20
55.0
 30
0.0
 40
4.5
  1
Rc 1
  0
TEXT
  8
L-ZISSEN
 10
325.0
 20
45.0
 30
0.0
 40
4.5
  1
Rc 1-1/4
  0
TEXT
  8
L-ZISSEN
 10
40.0
 20
450.0
 30
0.0
 40
4.5
  1
MODEL NO. : 268- 00- 3B
  0
TEXT
  8
L-ZISSEN
 10
106.0
 20
459.0
 30
0.0
 40
4.5
  1
4
  0
TEXT
  8
L-ZISSEN
 10
106.0
 20
453.0
 30
0.0
 40
4.5
  1
6
  0
TEXT
  8
L-ZISSEN
 10
106.0
 20
447.0
 30
0.0
 40
4.5
  1
8
  0
TEXT
  8
L-ZISSEN
 10
106.0
 20
441.0
 30
0.0
 40
4.5
  1
A
  0
TEXT
  8
L-ZISSEN
 10
122.0
 20
453.0
 30
0.0
 40
4.5
  1
0
  0
TEXT
  8
L-ZISSEN
 10
122.0
 20
447.0
 30
0.0
 40
4.5
  1
1
  0
TEXT
  8
L-ZISSEN
 10
136.0
 20
453.0
 30
0.0
 40
4.5
  1
0
  0
TEXT
  8
L-ZISSEN
 10
136.0
 20
447.0
 30
0.0
 40
4.5
  1
2
  0
LINE
  8
L-TYUSIN
 10
690.0
 20
135.0
 30
0.0
 11
690.0
 21
40.0
 31
0.0
  0
TEXT
  8
L-ZISSEN
 10
700.0
 20
120.0
 30
0.0
 40
4.5
  1
LOCK TYPE MANUAL OPERATION BUTTON
  0
TEXT
  8
L-ZISSEN
 10
700.0
 20
110.0
 30
0.0
 40
4.5
  1
MODEL NO. : 268-*00-*3R*
  0
LINE
  8
L-ZISSEN
 10
757.886751
 20
80.0
 30
0.0
 11
760.773503
 21
85.0
 31
0.0
  0
LINE
  8
L-ZISSEN
 10
760.773503
 20
85.0
 30
0.0
 11
757.886751
 21
90.0
 31
0.0
  0
LINE
  8
L-ZISSEN
 10
757.886751
 20
90.0
 30
0.0
 11
752.113249
 21
90.0
 31
0.0
  0
LINE
  8
L-ZISSEN
 10
752.113249
 20
90.0
 30
0.0
 11
749.226497
 21
85.0
 31
0.0
  0
LINE
  8
L-ZISSEN
 10
749.226497
 20
85.0
 30
0.0
 11
752.113249
 21
80.0
 31
0.0
  0
LINE
  8
L-ZISSEN
 10
752.113249
 20
80.0
 30
0.0
 11
757.886751
 21
80.0
 31
0.0
  0
LINE
  8
L-ZISSEN
 10
749.226497
 20
71.6
 30
0.0
 11
749.226497
 21
60.0
 31
0.0
  0
LINE
  8
L-ZISSEN
 10
760.773503
 20
71.6
 30
0.0
 11
760.773503
 21
60.0
 31
0.0
  0
LINE
  8
L-ZISSEN
 10
749.226497
 20
71.6
 30
0.0
 11
760.773503
 21
71.6
 31
0.0
  0
SOLID
  8
L-ZISSEN
 10
753.821489
 20
86.649916
 30
0.0
 11
753.350084
 21
86.178511
 31
0.0
 12
755.0
 22
85.0
 32
0.0
 13
755.0
 23
85.0
 33
0.0
  0
LINE
  8
L-ZISSEN
 10
753.585786
 20
86.414214
 30
0.0
 11
745.0
 21
95.0
 31
0.0
  0
LINE
  8
L-ZISSEN
 10
745.0
 20
95.0
 30
0.0
 11
743.0
 21
95.0
 31
0.0
  0
TEXT
  8
L-ZISSEN
 10
732.0
 20
92.75
 30
0.0
 40
4.5
  1
P.P
  0
LINE
  8
L-ZISSEN
 10
565.75
 20
207.9
 30
0.0
 11
565.75
 21
202.1
 31
0.0
  0
LINE
  8
L-ZISSEN
 10
574.25
 20
207.9
 30
0.0
 11
574.25
 21
202.1
 31
0.0
  0
LINE
  8
L-ZISSEN
 10
574.25
 20
207.9
 30
0.0
 11
565.75
 21
207.9
 31
0.0
  0
LINE
  8
L-ZISSEN
 10
557.0
 20
180.1
 30
0.0
 11
557.0
 21
202.1
 31
0.0
  0
LINE
  8
L-ZISSEN
 10
564.0
 20
172.1
 30
0.0
 11
557.0
 21
172.1
 31
0.0
  0
LINE
  8
L-ZISSEN
 10
587.5
 20
202.1
 30
0.0
 11
587.5
 21
215.1
 31
0.0
  0
LINE
  8
L-ZISSEN
 10
564.0
 20
180.1
 30
0.0
 11
557.0
 21
180.1
 31
0.0
  0
LINE
  8
L-ZISSEN
 10
587.5
 20
202.1
 30
0.0
 11
557.0
 21
202.1
 31
0.0
  0
LINE
  8
L-ZISSEN
 10
586.0
 20
183.1
 30
0.0
 11
576.0
 21
183.1
 31
0.0
  0
LINE
  8
L-ZISSEN
 10
586.0
 20
167.1
 30
0.0
 11
576.0
 21
167.1
 31
0.0
  0
LINE
  8
L-ZISSEN
 10
564.0
 20
165.1
 30
0.0
 11
564.0
 21
202.1
 31
0.0
  0
LINE
  8
L-ZISSEN
 10
576.0
 20
165.1
 30
0.0
 11
576.0
 21
202.1
 31
0.0
  0
ARC
  8
L-ZISSEN
 10
586.0
 20
175.1
 30
0.0
 40
8.0
 50
270.0
 51
90.0
  0
LINE
  8
L-ZISSEN
 10
570.0
 20
217.1
 30
0.0
 11
570.0
 21
207.9
 31
0.0
  0
LINE
  8
L-ZISSEN
 10
588.0
 20
217.1
 30
0.0
 11
588.0
 21
215.1
 31
0.0
  0
LINE
  8
L-ZISSEN
 10
587.5
 20
215.1
 30
0.0
 11
594.0
 21
215.1
 31
0.0
  0
LINE
  8
L-ZISSEN
 10
570.0
 20
217.1
 30
0.0
 11
588.0
 21
217.1
 31
0.0
  0
LINE
  8
L-ZISSEN
 10
594.0
 20
165.1
 30
0.0
 11
557.0
 21
165.1
 31
0.0
  0
LINE
  8
L-ZISSEN
 10
557.0
 20
164.1
 30
0.0
 11
557.0
 21
172.1
 31
0.0
  0
LINE
  8
L-ZISSEN
 10
586.328203
 20
224.2
 30
0.0
 11
572.471797
 21
224.2
 31
0.0
  0
LINE
  8
L-ZISSEN
 10
572.471797
 20
224.2
 30
0.0
 11
572.471797
 21
217.1
 31
0.0
  0
LINE
  8
L-ZISSEN
 10
586.328203
 20
224.2
 30
0.0
 11
586.328203
 21
217.1
 31
0.0
  0
LINE
  8
L-ZISSEN
 10
594.0
 20
215.1
 30
0.0
 11
637.9
 21
215.1
 31
0.0
  0
LINE
  8
L-ZISSEN
 10
637.9
 20
172.3
 30
0.0
 11
594.0
 21
172.3
 31
0.0
  0
LINE
  8
L-ZISSEN
 10
637.9
 20
215.1
 30
0.0
 11
637.9
 21
172.3
 31
0.0
  0
LINE
  8
L-ZISSEN
 10
640.9
 20
200.914955
 30
0.0
 11
637.9
 21
200.914955
 31
0.0
  0
LINE
  8
L-ZISSEN
 10
640.9
 20
181.285045
 30
0.0
 11
637.9
 21
181.285045
 31
0.0
  0
LINE
  8
L-ZISSEN
 10
640.9
 20
200.914955
 30
0.0
 11
640.9
 21
181.285045
 31
0.0
  0
LINE
  8
L-ZISSEN
 10
598.65
 20
250.8
 30
0.0
 11
598.65
 21
219.6
 31
0.0
  0
LINE
  8
L-ZISSEN
 10
598.65
 20
250.8
 30
0.0
 11
641.65
 21
250.8
 31
0.0
  0
LINE
  8
L-ZISSEN
 10
626.15
 20
228.3
 30
0.0
 11
641.65
 21
228.3
 31
0.0
  0
LINE
  8
L-ZISSEN
 10
641.65
 20
250.8
 30
0.0
 11
641.65
 21
228.3
 31
0.0
  0
LINE
  8
L-ZISSEN
 10
626.15
 20
250.8
 30
0.0
 11
626.15
 21
219.6
 31
0.0
  0
LINE
  8
L-ZISSEN
 10
652.4
 20
250.519655
 30
0.0
 11
652.4
 21
228.580345
 31
0.0
  0
LINE
  8
L-ZISSEN
 10
652.4
 20
250.519655
 30
0.0
 11
646.9
 21
250.519655
 31
0.0
  0
LINE
  8
L-ZISSEN
 10
652.4
 20
228.580345
 30
0.0
 11
646.9
 21
228.580345
 31
0.0
  0
LINE
  8
L-ZISSEN
 10
646.9
 20
250.519655
 30
0.0
 11
646.9
 21
228.580345
 31
0.0
  0
LINE
  8
L-ZISSEN
 10
641.65
 20
248.75
 30
0.0
 11
644.55
 21
248.75
 31
0.0
  0
LINE
  8
L-ZISSEN
 10
641.65
 20
230.35
 30
0.0
 11
644.55
 21
230.35
 31
0.0
  0
LINE
  8
L-ZISSEN
 10
644.55
 20
248.05
 30
0.0
 11
646.9
 21
248.05
 31
0.0
  0
LINE
  8
L-ZISSEN
 10
644.55
 20
231.05
 30
0.0
 11
646.9
 21
231.05
 31
0.0
  0
LINE
  8
L-ZISSEN
 10
644.55
 20
248.75
 30
0.0
 11
644.55
 21
230.35
 31
0.0
  0
LINE
  8
L-ZISSEN
 10
597.15
 20
219.6
 30
0.0
 11
597.15
 21
215.1
 31
0.0
  0
LINE
  8
L-ZISSEN
 10
627.65
 20
219.6
 30
0.0
 11
627.65
 21
215.1
 31
0.0
  0
LINE
  8
L-ZISSEN
 10
597.15
 20
219.6
 30
0.0
 11
627.65
 21
219.6
 31
0.0
  0
LINE
  8
L-ZISSEN
 10
594.0
 20
164.1
 30
0.0
 11
594.0
 21
215.1
 31
0.0
  0
LINE
  8
L-ZISSEN
 10
120.25
 20
207.8
 30
0.0
 11
120.25
 21
202.0
 31
0.0
  0
LINE
  8
L-ZISSEN
 10
116.0
 20
207.8
 30
0.0
 11
120.25
 21
207.8
 31
0.0
  0
LINE
  8
L-ZISSEN
 10
84.0
 20
207.8
 30
0.0
 11
79.75
 21
207.8
 31
0.0
  0
LINE
  8
L-ZISSEN
 10
79.75
 20
207.8
 30
0.0
 11
79.75
 21
202.0
 31
0.0
  0
LINE
  8
L-ZISSEN
 10
116.0
 20
202.0
 30
0.0
 11
122.0
 21
202.0
 31
0.0
  0
LINE
  8
L-ZISSEN
 10
122.0
 20
202.0
 30
0.0
 11
122.0
 21
164.0
 31
0.0
  0
LINE
  8
L-ZISSEN
 10
78.0
 20
202.0
 30
0.0
 11
84.0
 21
202.0
 31
0.0
  0
LINE
  8
L-ZISSEN
 10
78.0
 20
165.0
 30
0.0
 11
122.0
 21
165.0
 31
0.0
  0
LINE
  8
L-ZISSEN
 10
116.0
 20
165.0
 30
0.0
 11
116.0
 21
215.0
 31
0.0
  0
LINE
  8
L-ZISSEN
 10
84.0
 20
165.0
 30
0.0
 11
84.0
 21
215.0
 31
0.0
  0
LINE
  8
L-ZISSEN
 10
78.0
 20
164.0
 30
0.0
 11
78.0
 21
202.0
 31
0.0
  0
LINE
  8
L-ZISSEN
 10
84.0
 20
167.0
 30
0.0
 11
78.0
 21
167.0
 31
0.0
  0
LINE
  8
L-ZISSEN
 10
84.0
 20
183.0
 30
0.0
 11
78.0
 21
183.0
 31
0.0
  0
LINE
  8
L-ZISSEN
 10
85.0
 20
173.0
 30
0.0
 11
115.0
 21
173.0
 31
0.0
  0
LINE
  8
L-ZISSEN
 10
91.5
 20
195.907477
 30
0.0
 11
91.5
 21
186.092523
 31
0.0
  0
LINE
  8
L-ZISSEN
 10
100.0
 20
200.814955
 30
0.0
 11
91.5
 21
195.907477
 31
0.0
  0
LINE
  8
L-ZISSEN
 10
108.5
 20
195.907477
 30
0.0
 11
100.0
 21
200.814955
 31
0.0
  0
LINE
  8
L-ZISSEN
 10
108.5
 20
186.092523
 30
0.0
 11
108.5
 21
195.907477
 31
0.0
  0
LINE
  8
L-ZISSEN
 10
100.0
 20
181.185045
 30
0.0
 11
108.5
 21
186.092523
 31
0.0
  0
LINE
  8
L-ZISSEN
 10
91.5
 20
186.092523
 30
0.0
 11
100.0
 21
181.185045
 31
0.0
  0
LINE
  8
L-ZISSEN
 10
84.0
 20
215.0
 30
0.0
 11
116.0
 21
215.0
 31
0.0
  0
LINE
  8
L-ZISSEN
 10
84.75
 20
219.5
 30
0.0
 11
115.25
 21
219.5
 31
0.0
  0
LINE
  8
L-ZISSEN
 10
115.25
 20
219.5
 30
0.0
 11
115.25
 21
215.0
 31
0.0
  0
LINE
  8
L-ZISSEN
 10
84.75
 20
219.5
 30
0.0
 11
84.75
 21
215.0
 31
0.0
  0
CIRCLE
  8
L-ZISSEN
 10
100.0
 20
239.45
 30
0.0
 40
6.5
  0
LINE
  8
L-ZISSEN
 10
86.25
 20
250.7
 30
0.0
 11
86.25
 21
219.5
 31
0.0
  0
LINE
  8
L-ZISSEN
 10
113.75
 20
250.7
 30
0.0
 11
113.75
 21
219.5
 31
0.0
  0
CIRCLE
  8
L-ZISSEN
 10
100.0
 20
239.45
 30
0.0
 40
11.25
  0
LINE
  8
L-ZISSEN
 10
86.25
 20
250.7
 30
0.0
 11
113.75
 21
250.7
 31
0.0
  0
CIRCLE
  8
L-ZISSEN
 10
100.0
 20
191.0
 30
0.0
 40
2.067
  0
LINE
  8
L-ZISSEN
 10
85.0
 20
173.0
 30
0.0
 11
85.0
 21
215.0
 31
0.0
  0
LINE
  8
L-ZISSEN
 10
115.0
 20
173.0
 30
0.0
 11
115.0
 21
215.0
 31
0.0
  0
SOLID
  8
L-ZISSEN
 10
756.178511
 20
58.350084
 30
0.0
 11
756.649916
 21
58.821489
 31
0.0
 12
755.0
 22
60.0
 32
0.0
 13
755.0
 23
60.0
 33
0.0
  0
LINE
  8
L-ZISSEN
 10
756.414214
 20
58.585786
 30
0.0
 11
765.0
 21
50.0
 31
0.0
  0
LINE
  8
L-ZISSEN
 10
765.0
 20
50.0
 30
0.0
 11
767.0
 21
50.0
 31
0.0
  0
TEXT
  8
L-ZISSEN
 10
769.0
 20
47.75
 30
0.0
 40
4.5
  1
P.P
  0
LINE
  8
L-TYUSIN
 10
562.0
 20
191.1
 30
0.0
 11
552.0
 21
191.1
 31
0.0
  0
LINE
  8
L-ZISSEN
 10
396.25
 20
250.7
 30
0.0
 11
423.75
 21
250.7
 31
0.0
  0
LINE
  8
L-ZISSEN
 10
423.75
 20
250.7
 30
0.0
 11
423.75
 21
219.5
 31
0.0
  0
LINE
  8
L-ZISSEN
 10
396.25
 20
250.7
 30
0.0
 11
396.25
 21
219.5
 31
0.0
  0
LINE
  8
L-ZISSEN
 10
394.75
 20
219.5
 30
0.0
 11
394.75
 21
215.0
 31
0.0
  0
LINE
  8
L-ZISSEN
 10
425.25
 20
219.5
 30
0.0
 11
425.25
 21
215.0
 31
0.0
  0
LINE
  8
L-ZISSEN
 10
394.75
 20
219.5
 30
0.0
 11
404.0
 21
219.5
 31
0.0
  0
LINE
  8
L-ZISSEN
 10
394.0
 20
215.0
 30
0.0
 11
401.0
 21
215.0
 31
0.0
  0
LINE
  8
L-ZISSEN
 10
388.0
 20
164.0
 30
0.0
 11
388.0
 21
202.0
 31
0.0
  0
LINE
  8
L-ZISSEN
 10
394.0
 20
165.0
 30
0.0
 11
394.0
 21
202.0
 31
0.0
  0
LINE
  8
L-ZISSEN
 10
426.0
 20
165.0
 30
0.0
 11
426.0
 21
172.0
 31
0.0
  0
LINE
  8
L-ZISSEN
 10
388.0
 20
165.0
 30
0.0
 11
432.0
 21
165.0
 31
0.0
  0
LINE
  8
L-ZISSEN
 10
432.0
 20
202.0
 30
0.0
 11
432.0
 21
164.0
 31
0.0
  0
LINE
  8
L-ZISSEN
 10
388.0
 20
202.0
 30
0.0
 11
432.0
 21
202.0
 31
0.0
  0
LINE
  8
L-ZISSEN
 10
430.25
 20
207.8
 30
0.0
 11
430.25
 21
202.0
 31
0.0
  0
LINE
  8
L-ZISSEN
 10
430.25
 20
207.8
 30
0.0
 11
421.75
 21
207.8
 31
0.0
  0
LINE
  8
L-ZISSEN
 10
421.75
 20
207.8
 30
0.0
 11
421.75
 21
202.0
 31
0.0
  0
LINE
  8
L-ZISSEN
 10
398.25
 20
207.8
 30
0.0
 11
398.25
 21
202.0
 31
0.0
  0
LINE
  8
L-ZISSEN
 10
389.75
 20
207.8
 30
0.0
 11
398.25
 21
207.8
 31
0.0
  0
LINE
  8
L-ZISSEN
 10
389.75
 20
207.8
 30
0.0
 11
389.75
 21
202.0
 31
0.0
  0
LINE
  8
L-TYUSIN
 10
426.0
 20
191.0
 30
0.0
 11
394.0
 21
191.0
 31
0.0
  0
CIRCLE
  8
L-ZISSEN
 10
410.0
 20
191.0
 30
0.0
 40
11.0
  0
LINE
  8
L-ZISSEN
 10
426.0
 20
172.0
 30
0.0
 11
394.0
 21
172.0
 31
0.0
  0
LINE
  8
L-ZISSEN
 10
426.0
 20
207.8
 30
0.0
 11
426.0
 21
215.0
 31
0.0
  0
LINE
  8
L-ZISSEN
 10
394.0
 20
207.8
 30
0.0
 11
394.0
 21
215.0
 31
0.0
  0
LINE
  8
L-ZISSEN
 10
401.0
 20
217.0
 30
0.0
 11
419.0
 21
217.0
 31
0.0
  0
LINE
  8
L-ZISSEN
 10
401.0
 20
217.0
 30
0.0
 11
401.0
 21
202.0
 31
0.0
  0
LINE
  8
L-ZISSEN
 10
419.0
 20
217.0
 30
0.0
 11
419.0
 21
202.0
 31
0.0
  0
LINE
  8
L-ZISSEN
 10
419.0
 20
215.0
 30
0.0
 11
426.0
 21
215.0
 31
0.0
  0
LINE
  8
L-ZISSEN
 10
416.0
 20
224.1
 30
0.0
 11
404.0
 21
224.1
 31
0.0
  0
LINE
  8
L-ZISSEN
 10
404.0
 20
224.1
 30
0.0
 11
404.0
 21
217.0
 31
0.0
  0
LINE
  8
L-ZISSEN
 10
416.0
 20
224.1
 30
0.0
 11
416.0
 21
217.0
 31
0.0
  0
LINE
  8
L-ZISSEN
 10
416.0
 20
219.5
 30
0.0
 11
425.25
 21
219.5
 31
0.0
  0
CIRCLE
  8
L-ZISSEN
 10
410.0
 20
191.0
 30
0.0
 40
5.7225
  0
LINE
  8
L-TYUSIN
 10
278.0
 20
191.0
 30
0.0
 11
268.0
 21
191.0
 31
0.0
  0
LINE
  8
L-ZISSEN
 10
236.0
 20
165.0
 30
0.0
 11
273.0
 21
165.0
 31
0.0
  0
LINE
  8
L-ZISSEN
 10
273.0
 20
164.0
 30
0.0
 11
273.0
 21
172.0
 31
0.0
  0
LINE
  8
L-ZISSEN
 10
236.0
 20
164.0
 30
0.0
 11
236.0
 21
215.0
 31
0.0
  0
LINE
  8
L-ZISSEN
 10
254.0
 20
165.0
 30
0.0
 11
254.0
 21
202.0
 31
0.0
  0
LINE
  8
L-ZISSEN
 10
242.0
 20
165.0
 30
0.0
 11
242.0
 21
202.0
 31
0.0
  0
LINE
  8
L-ZISSEN
 10
260.0
 20
207.8
 30
0.0
 11
264.25
 21
207.8
 31
0.0
  0
LINE
  8
L-ZISSEN
 10
264.25
 20
207.8
 30
0.0
 11
264.25
 21
202.0
 31
0.0
  0
LINE
  8
L-ZISSEN
 10
232.85
 20
219.5
 30
0.0
 11
202.35
 21
219.5
 31
0.0
  0
LINE
  8
L-ZISSEN
 10
202.35
 20
219.5
 30
0.0
 11
202.35
 21
215.0
 31
0.0
  0
LINE
  8
L-ZISSEN
 10
232.85
 20
219.5
 30
0.0
 11
232.85
 21
215.0
 31
0.0
  0
LINE
  8
L-ZISSEN
 10
185.45
 20
248.65
 30
0.0
 11
185.45
 21
230.25
 31
0.0
  0
LINE
  8
L-ZISSEN
 10
185.45
 20
230.95
 30
0.0
 11
183.1
 21
230.95
 31
0.0
  0
LINE
  8
L-ZISSEN
 10
185.45
 20
247.95
 30
0.0
 11
183.1
 21
247.95
 31
0.0
  0
LINE
  8
L-ZISSEN
 10
188.35
 20
230.25
 30
0.0
 11
185.45
 21
230.25
 31
0.0
  0
LINE
  8
L-ZISSEN
 10
188.35
 20
248.65
 30
0.0
 11
185.45
 21
248.65
 31
0.0
  0
LINE
  8
L-ZISSEN
 10
183.1
 20
250.419655
 30
0.0
 11
183.1
 21
228.480345
 31
0.0
  0
LINE
  8
L-ZISSEN
 10
177.6
 20
228.480345
 30
0.0
 11
183.1
 21
228.480345
 31
0.0
  0
LINE
  8
L-ZISSEN
 10
177.6
 20
250.419655
 30
0.0
 11
183.1
 21
250.419655
 31
0.0
  0
LINE
  8
L-ZISSEN
 10
177.6
 20
250.419655
 30
0.0
 11
177.6
 21
228.480345
 31
0.0
  0
LINE
  8
L-ZISSEN
 10
203.85
 20
250.7
 30
0.0
 11
203.85
 21
219.5
 31
0.0
  0
LINE
  8
L-ZISSEN
 10
188.35
 20
250.7
 30
0.0
 11
188.35
 21
228.2
 31
0.0
  0
LINE
  8
L-ZISSEN
 10
203.85
 20
228.2
 30
0.0
 11
188.35
 21
228.2
 31
0.0
  0
LINE
  8
L-ZISSEN
 10
231.35
 20
250.7
 30
0.0
 11
188.35
 21
250.7
 31
0.0
  0
LINE
  8
L-ZISSEN
 10
231.35
 20
250.7
 30
0.0
 11
231.35
 21
219.5
 31
0.0
  0
LINE
  8
L-ZISSEN
 10
189.1
 20
200.814955
 30
0.0
 11
189.1
 21
181.185045
 31
0.0
  0
LINE
  8
L-ZISSEN
 10
189.1
 20
181.185045
 30
0.0
 11
192.1
 21
181.185045
 31
0.0
  0
LINE
  8
L-ZISSEN
 10
189.1
 20
200.814955
 30
0.0
 11
192.1
 21
200.814955
 31
0.0
  0
LINE
  8
L-ZISSEN
 10
192.1
 20
215.0
 30
0.0
 11
192.1
 21
172.2
 31
0.0
  0
LINE
  8
L-ZISSEN
 10
192.1
 20
172.2
 30
0.0
 11
236.0
 21
172.2
 31
0.0
  0
LINE
  8
L-ZISSEN
 10
236.0
 20
215.0
 30
0.0
 11
192.1
 21
215.0
 31
0.0
  0
LINE
  8
L-ZISSEN
 10
243.671797
 20
224.1
 30
0.0
 11
243.671797
 21
217.0
 31
0.0
  0
LINE
  8
L-ZISSEN
 10
257.528203
 20
224.1
 30
0.0
 11
257.528203
 21
217.0
 31
0.0
  0
LINE
  8
L-ZISSEN
 10
243.671797
 20
224.1
 30
0.0
 11
257.528203
 21
224.1
 31
0.0
  0
LINE
  8
L-ZISSEN
 10
260.0
 20
217.0
 30
0.0
 11
242.0
 21
217.0
 31
0.0
  0
LINE
  8
L-ZISSEN
 10
242.5
 20
215.0
 30
0.0
 11
236.0
 21
215.0
 31
0.0
  0
LINE
  8
L-ZISSEN
 10
242.0
 20
217.0
 30
0.0
 11
242.0
 21
215.0
 31
0.0
  0
LINE
  8
L-ZISSEN
 10
260.0
 20
217.0
 30
0.0
 11
260.0
 21
202.0
 31
0.0
  0
LINE
  8
L-ZISSEN
 10
266.0
 20
172.0
 30
0.0
 11
266.0
 21
202.0
 31
0.0
  0
LINE
  8
L-ZISSEN
 10
242.0
 20
202.0
 30
0.0
 11
273.0
 21
202.0
 31
0.0
  0
LINE
  8
L-ZISSEN
 10
266.0
 20
180.0
 30
0.0
 11
273.0
 21
180.0
 31
0.0
  0
LINE
  8
L-ZISSEN
 10
242.5
 20
202.0
 30
0.0
 11
242.5
 21
215.0
 31
0.0
  0
LINE
  8
L-ZISSEN
 10
266.0
 20
172.0
 30
0.0
 11
273.0
 21
172.0
 31
0.0
  0
LINE
  8
L-ZISSEN
 10
273.0
 20
180.0
 30
0.0
 11
273.0
 21
202.0
 31
0.0
  0
LINE
  8
L-ZISSEN
 10
243.75
 20
207.8
 30
0.0
 11
252.25
 21
207.8
 31
0.0
  0
LINE
  8
L-ZISSEN
 10
243.75
 20
207.8
 30
0.0
 11
243.75
 21
202.0
 31
0.0
  0
LINE
  8
L-ZISSEN
 10
252.25
 20
207.8
 30
0.0
 11
252.25
 21
202.0
 31
0.0
  0
LINE
  8
L-ZISSEN
 10
298.5
 20
370.0
 30
0.0
 11
306.0
 21
370.0
 31
0.0
  0
LINE
  8
L-ZISSEN
 10
298.5
 20
378.5
 30
0.0
 11
298.5
 21
368.5
 31
0.0
  0
LINE
  8
L-ZISSEN
 10
298.5
 20
368.5
 30
0.0
 11
291.0
 21
368.5
 31
0.0
  0
LINE
  8
L-ZISSEN
 10
298.5
 20
378.5
 30
0.0
 11
291.0
 21
378.5
 31
0.0
  0
LINE
  8
L-ZISSEN
 10
298.5
 20
316.5
 30
0.0
 11
291.0
 21
316.5
 31
0.0
  0
LINE
  8
L-ZISSEN
 10
298.5
 20
326.5
 30
0.0
 11
291.0
 21
326.5
 31
0.0
  0
LINE
  8
L-ZISSEN
 10
298.5
 20
316.5
 30
0.0
 11
298.5
 21
326.5
 31
0.0
  0
LINE
  8
L-ZISSEN
 10
298.5
 20
325.0
 30
0.0
 11
306.0
 21
325.0
 31
0.0
  0
LINE
  8
L-ZISSEN
 10
306.0
 20
325.0
 30
0.0
 11
306.0
 21
370.0
 31
0.0
  0
LINE
  8
L-ZISSEN
 10
299.5
 20
339.5
 30
0.0
 11
299.5
 21
355.5
 31
0.0
  0
LINE
  8
L-ZISSEN
 10
299.5
 20
339.5
 30
0.0
 11
276.0
 21
339.5
 31
0.0
  0
LINE
  8
L-ZISSEN
 10
299.5
 20
355.5
 30
0.0
 11
276.0
 21
355.5
 31
0.0
  0
LINE
  8
L-ZISSEN
 10
276.0
 20
331.8
 30
0.0
 11
276.0
 21
363.2
 31
0.0
  0
LINE
  8
L-ZISSEN
 10
224.0
 20
331.8
 30
0.0
 11
224.0
 21
332.5
 31
0.0
  0
LINE
  8
L-ZISSEN
 10
281.5
 20
355.5
 30
0.0
 11
281.5
 21
379.0
 31
0.0
  0
LINE
  8
L-ZISSEN
 10
289.0
 20
362.5
 30
0.0
 11
289.0
 21
380.5
 31
0.0
  0
LINE
  8
L-ZISSEN
 10
291.0
 20
355.5
 30
0.0
 11
291.0
 21
380.5
 31
0.0
  0
LINE
  8
L-ZISSEN
 10
265.7
 20
324.0
 30
0.0
 11
234.3
 21
324.0
 31
0.0
  0
LINE
  8
L-ZISSEN
 10
265.7
 20
376.0
 30
0.0
 11
234.3
 21
376.0
 31
0.0
  0
LINE
  8
L-ZISSEN
 10
218.5
 20
362.5
 30
0.0
 11
218.5
 21
379.0
 31
0.0
  0
ARC
  8
L-ZISSEN
 10
228.0
 20
369.5
 30
0.0
 40
6.3
 50
270.0
 51
360.0
  0
ARC
  8
L-ZISSEN
 10
272.0
 20
369.5
 30
0.0
 40
6.3
 50
180.0
 51
252.24721
  0
ARC
  8
L-ZISSEN
 10
272.0
 20
325.5
 30
0.0
 40
6.3
 50
107.75279
 51
180.0
  0
ARC
  8
L-ZISSEN
 10
228.0
 20
325.5
 30
0.0
 40
6.3
 50
0.0
 51
90.0
  0
LINE
  8
L-ZISSEN
 10
273.0
 20
363.2
 30
0.0
 11
276.0
 21
363.2
 31
0.0
  0
LINE
  8
L-ZISSEN
 10
265.7
 20
369.5
 30
0.0
 11
265.7
 21
376.0
 31
0.0
  0
LINE
  8
L-ZISSEN
 10
234.3
 20
369.5
 30
0.0
 11
234.3
 21
376.0
 31
0.0
  0
LINE
  8
L-ZISSEN
 10
228.0
 20
363.2
 30
0.0
 11
224.0
 21
363.2
 31
0.0
  0
LINE
  8
L-ZISSEN
 10
228.0
 20
331.8
 30
0.0
 11
224.0
 21
331.8
 31
0.0
  0
LINE
  8
L-ZISSEN
 10
234.3
 20
325.5
 30
0.0
 11
234.3
 21
324.0
 31
0.0
  0
LINE
  8
L-ZISSEN
 10
265.7
 20
325.5
 30
0.0
 11
265.7
 21
324.0
 31
0.0
  0
LINE
  8
L-ZISSEN
 10
273.0
 20
331.8
 30
0.0
 11
276.0
 21
331.8
 31
0.0
  0
CIRCLE
  8
L-ZISSEN
 10
272.0
 20
325.5
 30
0.0
 40
5.0
  0
CIRCLE
  8
L-ZISSEN
 10
272.0
 20
369.5
 30
0.0
 40
5.0
  0
CIRCLE
  8
L-ZISSEN
 10
228.0
 20
369.5
 30
0.0
 40
5.0
  0
CIRCLE
  8
L-ZISSEN
 10
228.0
 20
325.5
 30
0.0
 40
5.0
  0
LINE
  8
L-ZISSEN
 10
289.0
 20
332.5
 30
0.0
 11
281.5
 21
332.5
 31
0.0
  0
LINE
  8
L-ZISSEN
 10
289.0
 20
362.5
 30
0.0
 11
281.5
 21
362.5
 31
0.0
  0
LINE
  8
L-ZISSEN
 10
211.0
 20
362.5
 30
0.0
 11
218.5
 21
362.5
 31
0.0
  0
LINE
  8
L-ZISSEN
 10
211.0
 20
332.5
 30
0.0
 11
218.5
 21
332.5
 31
0.0
  0
LINE
  8
L-ZISSEN
 10
211.0
 20
362.5
 30
0.0
 11
211.0
 21
380.5
 31
0.0
  0
LINE
  8
L-ZISSEN
 10
283.0
 20
332.5
 30
0.0
 11
283.0
 21
339.5
 31
0.0
  0
LINE
  8
L-ZISSEN
 10
283.0
 20
355.5
 30
0.0
 11
283.0
 21
362.5
 31
0.0
  0
LINE
  8
L-ZISSEN
 10
266.0
 20
336.5
 30
0.0
 11
273.0
 21
336.5
 31
0.0
  0
LINE
  8
L-ZISSEN
 10
266.0
 20
358.5
 30
0.0
 11
273.0
 21
358.5
 31
0.0
  0
LINE
  8
L-ZISSEN
 10
242.5
 20
331.5
 30
0.0
 11
242.5
 21
338.5
 31
0.0
  0
LINE
  8
L-ZISSEN
 10
251.0
 20
338.5
 30
0.0
 11
242.5
 21
338.5
 31
0.0
  0
LINE
  8
L-ZISSEN
 10
247.135898
 20
341.5
 30
0.0
 11
243.671797
 21
347.5
 31
0.0
  0
LINE
  8
L-ZISSEN
 10
247.135898
 20
353.5
 30
0.0
 11
243.671797
 21
347.5
 31
0.0
  0
LINE
  8
L-ZISSEN
 10
251.0
 20
356.5
 30
0.0
 11
242.5
 21
356.5
 31
0.0
  0
LINE
  8
L-ZISSEN
 10
247.135898
 20
353.5
 30
0.0
 11
254.064102
 21
353.5
 31
0.0
  0
LINE
  8
L-ZISSEN
 10
254.064102
 20
353.5
 30
0.0
 11
257.528203
 21
347.5
 31
0.0
  0
LINE
  8
L-ZISSEN
 10
257.528203
 20
347.5
 30
0.0
 11
254.064102
 21
341.5
 31
0.0
  0
LINE
  8
L-ZISSEN
 10
254.064102
 20
341.5
 30
0.0
 11
247.135898
 21
341.5
 31
0.0
  0
ARC
  8
L-ZISSEN
 10
251.0
 20
347.5
 30
0.0
 40
9.0
 50
270.0
 51
90.0
  0
LINE
  8
L-ZISSEN
 10
273.0
 20
331.5
 30
0.0
 11
254.0
 21
331.5
 31
0.0
  0
LINE
  8
L-ZISSEN
 10
273.0
 20
331.5
 30
0.0
 11
273.0
 21
363.5
 31
0.0
  0
LINE
  8
L-ZISSEN
 10
273.0
 20
363.5
 30
0.0
 11
266.0
 21
363.5
 31
0.0
  0
LINE
  8
L-ZISSEN
 10
266.0
 20
331.5
 30
0.0
 11
266.0
 21
363.5
 31
0.0
  0
CIRCLE
  8
L-ZISSEN
 10
260.0
 20
363.5
 30
0.0
 40
4.25
  0
ARC
  8
L-ZISSEN
 10
260.0
 20
363.5
 30
0.0
 40
6.0
 50
0.0
 51
180.0
  0
LINE
  8
L-ZISSEN
 10
236.0
 20
369.5
 30
0.0
 11
260.0
 21
369.5
 31
0.0
  0
LINE
  8
L-ZISSEN
 10
242.5
 20
356.5
 30
0.0
 11
242.5
 21
363.5
 31
0.0
  0
LINE
  8
L-ZISSEN
 10
254.0
 20
363.5
 30
0.0
 11
236.0
 21
363.5
 31
0.0
  0
LINE
  8
L-ZISSEN
 10
242.5
 20
331.5
 30
0.0
 11
236.0
 21
331.5
 31
0.0
  0
LINE
  8
L-ZISSEN
 10
236.0
 20
331.5
 30
0.0
 11
236.0
 21
369.5
 31
0.0
  0
CIRCLE
  8
L-ZISSEN
 10
248.0
 20
331.5
 30
0.0
 40
4.25
  0
ARC
  8
L-ZISSEN
 10
248.0
 20
331.5
 30
0.0
 40
6.0
 50
180.0
 51
0.0
  0
LINE
  8
L-ZISSEN
 10
202.35
 20
362.5
 30
0.0
 11
236.0
 21
362.5
 31
0.0
  0
LINE
  8
L-ZISSEN
 10
232.35
 20
362.5
 30
0.0
 11
232.35
 21
332.5
 31
0.0
  0
LINE
  8
L-ZISSEN
 10
202.35
 20
332.5
 30
0.0
 11
236.0
 21
332.5
 31
0.0
  0
LINE
  8
L-ZISSEN
 10
231.35
 20
333.75
 30
0.0
 11
203.85
 21
333.75
 31
0.0
  0
LINE
  8
L-ZISSEN
 10
231.35
 20
333.75
 30
0.0
 11
231.35
 21
361.25
 31
0.0
  0
LINE
  8
L-ZISSEN
 10
203.85
 20
333.75
 30
0.0
 11
203.85
 21
361.25
 31
0.0
  0
LINE
  8
L-ZISSEN
 10
202.35
 20
336.25
 30
0.0
 11
202.35
 21
332.5
 31
0.0
  0
LINE
  8
L-ZISSEN
 10
203.85
 20
336.25
 30
0.0
 11
188.35
 21
336.25
 31
0.0
  0
LINE
  8
L-ZISSEN
 10
202.35
 20
362.5
 30
0.0
 11
202.35
 21
358.75
 31
0.0
  0
LINE
  8
L-ZISSEN
 10
231.35
 20
361.25
 30
0.0
 11
203.85
 21
361.25
 31
0.0
  0
LINE
  8
L-ZISSEN
 10
203.85
 20
358.75
 30
0.0
 11
188.35
 21
358.75
 31
0.0
  0
LINE
  8
L-ZISSEN
 10
188.35
 20
336.25
 30
0.0
 11
188.35
 21
358.75
 31
0.0
  0
LINE
  8
L-ZISSEN
 10
185.45
 20
338.3
 30
0.0
 11
185.45
 21
356.7
 31
0.0
  0
LINE
  8
L-ZISSEN
 10
177.6
 20
336.530345
 30
0.0
 11
177.6
 21
358.469655
 31
0.0
  0
LINE
  8
L-ZISSEN
 10
177.6
 20
336.530345
 30
0.0
 11
183.1
 21
336.530345
 31
0.0
  0
LINE
  8
L-ZISSEN
 10
177.6
 20
358.469655
 30
0.0
 11
183.1
 21
358.469655
 31
0.0
  0
LINE
  8
L-ZISSEN
 10
183.1
 20
336.530345
 30
0.0
 11
183.1
 21
358.469655
 31
0.0
  0
LINE
  8
L-ZISSEN
 10
188.35
 20
338.3
 30
0.0
 11
185.45
 21
338.3
 31
0.0
  0
LINE
  8
L-ZISSEN
 10
188.35
 20
356.7
 30
0.0
 11
185.45
 21
356.7
 31
0.0
  0
LINE
  8
L-ZISSEN
 10
185.45
 20
339.0
 30
0.0
 11
183.1
 21
339.0
 31
0.0
  0
LINE
  8
L-ZISSEN
 10
185.45
 20
356.0
 30
0.0
 11
183.1
 21
356.0
 31
0.0
  0
LINE
  8
L-ZISSEN
 10
209.0
 20
362.5
 30
0.0
 11
209.0
 21
380.5
 31
0.0
  0
LINE
  8
L-ZISSEN
 10
194.0
 20
358.75
 30
0.0
 11
194.0
 21
370.0
 31
0.0
  0
LINE
  8
L-ZISSEN
 10
224.0
 20
362.5
 30
0.0
 11
224.0
 21
363.2
 31
0.0
  0
LINE
  8
L-ZISSEN
 10
73.0
 20
49.0
 30
0.0
 11
73.0
 21
56.5
 31
0.0
  0
LINE
  8
L-ZISSEN
 10
73.0
 20
49.0
 30
0.0
 11
83.0
 21
49.0
 31
0.0
  0
LINE
  8
L-ZISSEN
 10
83.0
 20
49.0
 30
0.0
 11
83.0
 21
56.5
 31
0.0
  0
LINE
  8
L-ZISSEN
 10
127.0
 20
49.0
 30
0.0
 11
127.0
 21
56.5
 31
0.0
  0
LINE
  8
L-ZISSEN
 10
117.0
 20
49.0
 30
0.0
 11
127.0
 21
49.0
 31
0.0
  0
LINE
  8
L-ZISSEN
 10
117.0
 20
49.0
 30
0.0
 11
117.0
 21
56.5
 31
0.0
  0
CIRCLE
  8
L-ZISSEN
 10
100.0
 20
100.0
 30
0.0
 40
15.1455
  0
LINE
  8
L-ZISSEN
 10
123.5
 20
159.0
 30
0.0
 11
123.5
 21
164.0
 31
0.0
  0
CIRCLE
  8
L-ZISSEN
 10
74.0
 20
78.0
 30
0.0
 40
5.0
  0
CIRCLE
  8
L-ZISSEN
 10
126.0
 20
78.0
 30
0.0
 40
5.0
  0
CIRCLE
  8
L-ZISSEN
 10
126.0
 20
122.0
 30
0.0
 40
5.0
  0
CIRCLE
  8
L-ZISSEN
 10
74.0
 20
122.0
 30
0.0
 40
5.0
  0
LINE
  8
L-ZISSEN
 10
83.0
 20
159.0
 30
0.0
 11
83.0
 21
155.1
 31
0.0
  0
LINE
  8
L-ZISSEN
 10
73.0
 20
159.0
 30
0.0
 11
73.0
 21
155.1
 31
0.0
  0
LINE
  8
L-ZISSEN
 10
83.0
 20
159.0
 30
0.0
 11
73.0
 21
159.0
 31
0.0
  0
LINE
  8
L-ZISSEN
 10
127.0
 20
159.0
 30
0.0
 11
117.0
 21
159.0
 31
0.0
  0
LINE
  8
L-ZISSEN
 10
117.0
 20
159.0
 30
0.0
 11
117.0
 21
155.1
 31
0.0
  0
LINE
  8
L-ZISSEN
 10
127.0
 20
159.0
 30
0.0
 11
127.0
 21
155.1
 31
0.0
  0
LINE
  8
L-ZISSEN
 10
107.5
 20
155.0
 30
0.0
 11
107.5
 21
130.0
 31
0.0
  0
LINE
  8
L-ZISSEN
 10
67.0
 20
129.353846
 30
0.0
 11
85.0
 21
129.353846
 31
0.0
  0
LINE
  8
L-ZISSEN
 10
85.0
 20
145.0
 30
0.0
 11
67.0
 21
145.0
 31
0.0
  0
LINE
  8
L-ZISSEN
 10
85.0
 20
145.0
 30
0.0
 11
85.0
 21
129.353846
 31
0.0
  0
LINE
  8
L-ZISSEN
 10
107.5
 20
130.0
 30
0.0
 11
92.5
 21
130.0
 31
0.0
  0
LINE
  8
L-ZISSEN
 10
133.0
 20
72.0
 30
0.0
 11
67.0
 21
72.0
 31
0.0
  0
LINE
  8
L-ZISSEN
 10
67.0
 20
146.0
 30
0.0
 11
67.0
 21
72.0
 31
0.0
  0
LINE
  8
L-ZISSEN
 10
133.0
 20
72.0
 30
0.0
 11
133.0
 21
145.0
 31
0.0
  0
LINE
  8
L-ZISSEN
 10
72.0
 20
56.5
 30
0.0
 11
72.0
 21
72.0
 31
0.0
  0
LINE
  8
L-ZISSEN
 10
128.0
 20
56.5
 30
0.0
 11
128.0
 21
72.0
 31
0.0
  0
LINE
  8
L-ZISSEN
 10
72.0
 20
61.0
 30
0.0
 11
128.0
 21
61.0
 31
0.0
  0
LINE
  8
L-ZISSEN
 10
131.5
 20
146.0
 30
0.0
 11
68.5
 21
146.0
 31
0.0
  0
LINE
  8
L-ZISSEN
 10
115.0
 20
145.0
 30
0.0
 11
115.0
 21
129.353846
 31
0.0
  0
LINE
  8
L-ZISSEN
 10
115.0
 20
145.0
 30
0.0
 11
133.0
 21
145.0
 31
0.0
  0
LINE
  8
L-ZISSEN
 10
92.5
 20
155.0
 30
0.0
 11
92.5
 21
130.0
 31
0.0
  0
LINE
  8
L-TYUSIN
  6
CENTER
 62
     1
 10
136.0
 20
100.0
 30
0.0
 11
120.0
 21
100.0
 31
0.0
  0
LINE
  8
L-ZISSEN
 10
133.0
 20
129.353846
 30
0.0
 11
115.0
 21
129.353846
 31
0.0
  0
LINE
  8
L-TYUSIN
  6
CENTER
 62
     1
 10
140.0
 20
100.0
 30
0.0
 11
60.0
 21
100.0
 31
0.0
  0
LINE
  8
L-ZISSEN
 10
133.0
 20
128.0
 30
0.0
 11
67.0
 21
128.0
 31
0.0
  0
CIRCLE
  8
L-ZISSEN
 10
100.0
 20
100.0
 30
0.0
 40
22.5
  0
LINE
  8
L-TYUSIN
  6
CENTER
 62
     1
 10
100.0
 20
255.7
 30
0.0
 11
100.0
 21
48.5
 31
0.0
  0
LINE
  8
L-ZISSEN
 10
131.5
 20
155.0
 30
0.0
 11
68.5
 21
155.0
 31
0.0
  0
LINE
  8
L-ZISSEN
 10
71.5
 20
164.0
 30
0.0
 11
123.5
 21
164.0
 31
0.0
  0
LINE
  8
L-ZISSEN
 10
115.7
 20
155.0
 30
0.0
 11
115.7
 21
164.0
 31
0.0
  0
LINE
  8
L-ZISSEN
 10
84.3
 20
155.0
 30
0.0
 11
84.3
 21
164.0
 31
0.0
  0
LINE
  8
L-ZISSEN
 10
131.5
 20
145.0
 30
0.0
 11
131.5
 21
155.0
 31
0.0
  0
LINE
  8
L-ZISSEN
 10
68.5
 20
145.0
 30
0.0
 11
68.5
 21
155.0
 31
0.0
  0
LINE
  8
L-ZISSEN
 10
83.0
 20
53.5
 30
0.0
 11
117.0
 21
53.5
 31
0.0
  0
LINE
  8
L-ZISSEN
 10
72.0
 20
56.5
 30
0.0
 11
128.0
 21
56.5
 31
0.0
  0
LINE
  8
L-ZISSEN
 10
71.5
 20
164.0
 30
0.0
 11
71.5
 21
155.0
 31
0.0
  0
LINE
  8
L-ZISSEN
 10
44.0
 20
146.0
 30
0.0
 11
44.0
 21
122.0
 31
0.0
  0
LINE
  8
L-ZISSEN
 10
47.2
 20
146.0
 30
0.0
 11
47.2
 21
122.0
 31
0.0
  0
LINE
  8
L-ZISSEN
 10
67.0
 20
146.0
 30
0.0
 11
44.0
 21
146.0
 31
0.0
  0
LINE
  8
L-ZISSEN
 10
67.0
 20
122.0
 30
0.0
 11
44.0
 21
122.0
 31
0.0
  0
LINE
  8
L-TYUSIN
  6
CENTER
 62
     1
 10
51.2
 20
134.0
 30
0.0
 11
40.0
 21
134.0
 31
0.0
  0
SOLID
  8
L-ZISSEN
 10
251.821275
 20
218.618517
 30
0.0
 11
251.230335
 21
218.927119
 31
0.0
 12
250.6
 22
217.0
 32
0.0
 13
250.6
 23
217.0
 33
0.0
  0
LINE
  8
L-ZISSEN
 10
251.525805
 20
218.772818
 30
0.0
 11
260.0
 21
235.0
 31
0.0
  0
LINE
  8
L-ZISSEN
 10
260.0
 20
235.0
 30
0.0
 11
262.0
 21
235.0
 31
0.0
  0
TEXT
  8
L-ZISSEN
 10
264.0
 20
232.75
 30
0.0
 40
4.5
  1
P.P
  0
SOLID
  8
L-ZISSEN
 10
250.706447
 20
345.475209
 30
0.0
 11
251.357382
 21
345.61918
 31
0.0
 12
250.6
 22
347.5
 32
0.0
 13
250.6
 23
347.5
 33
0.0
  0
LINE
  8
L-ZISSEN
 10
251.031915
 20
345.547194
 30
0.0
 11
260.0
 21
305.0
 31
0.0
  0
LINE
  8
L-ZISSEN
 10
260.0
 20
305.0
 30
0.0
 11
262.0
 21
305.0
 31
0.0
  0
TEXT
  8
L-ZISSEN
 10
264.0
 20
302.75
 30
0.0
 40
4.5
  1
P.P
  0
LINE
  8
L-TYUSIN
  6
CENTER
 62
     1
 10
306.5
 20
408.5
 30
0.0
 11
306.5
 21
395.3
 31
0.0
  0
LINE
  8
L-TYUSIN
  6
CENTER
 62
     1
 10
193.5
 20
408.5
 30
0.0
 11
193.5
 21
395.3
 31
0.0
  0
LINE
  8
L-ZISSEN
 10
226.0
 20
83.0
 30
0.0
 11
222.0
 21
83.0
 31
0.0
  0
LINE
  8
L-ZISSEN
 10
604.0
 20
83.0
 30
0.0
 11
608.0
 21
83.0
 31
0.0
  0
LINE
  8
L-ZISSEN
 10
235.0
 20
314.5
 30
0.0
 11
235.0
 21
316.0
 31
0.0
  0
LINE
  8
L-ZISSEN
 10
235.0
 20
379.0
 30
0.0
 11
235.0
 21
380.5
 31
0.0
  0
ENDSEC
  0
EOF
